Oops, an error
Loading. Please wait.

Camael - One Mans Apocalypse bass

10 views 1 this week
no commentswrite comment
1 2 3 4 5
3 more votes to show rating
add to favorites
×
Save as Personal and add changes to this tab that will be seen only by you. Learn more ›
×
You can save this tab as Personal to edit and correct it or add notes. All changes will be seen only by you. Learn more »
launch autoscroll
font size
0
reset
guitar tuner
edit
Autoscroll
slow
fast
+/-
esc
set tempo
stop
Intro time signature changes from 5/8 to 7/8 on the third part of the bar.
      
[Intro]                        |   7/8 Here|
A|--------6--------------------6------------5---------|
e|--5-8-7------5-7-8-----5-8-7------5-7-8-------*-----|
A|------------------8--------------------6-------x3---|
D|-7---------8--------7---------8------------8-*------|
G|----------------------------------------------------|
C|----------------------------------------------------|
  |   5/8  ||   5/8 || 5/8      |    7/8   |   |5/8|
A|---------6--------------------6----------5---------|
e|---5-8-7-----5-7-8------5-8-7-----5-7-8------------|
A|--------------------8-------------------6----------|
D|-7----------8---------7----------8----------8-7~~~~|
G|---------------------------------------------------|
C|---------------------------------------------------|

[Verse]5/8
A|-12-12-12-0-0-----------0-0--10-0-10-12-10--13-13-13-0-0--------0-0--1-0-1-4-0|
e|---------------13-13-13-----------------------------------3-3-3---------------|
A|------------------------------------------------------------------------------|
D|------------------------------------------------------------------------------|
G|------------------------------------------------------------------------------|
C|------------------------------------------------------------------------------|
   5/8
A|-------0-0--------0-0--5-0-5-8-7--------0-0--------0-0--1-0-1-4-0-*-----------|
e|-5-5-5------8-8-8-----------------4-4-4------1-1-1------------------x4--------|
A|------------------------------------------------------------------*-----------|
D|------------------------------------------------------------------------------|
G|------------------------------------------------------------------------------|
C|------------------------------------------------------------------------------|

[Pre-chorus] 5/8 
A|-0-0-7-7-7--0-0-8-8-8--0-0-5-5-5--0-0-7-7-7--0-0-3-3-3--0-0-1-1-1----------------|
e|-------------------------------------------------------------------------4-0*----|
A|-----------------------------------------------------------------------3------x2-|
D|-------------------------------------------------------------------3-2------*----|
G|---------------------------------------------------------------------------------|
C|---------------------------------------------------------------------------------|
  11/8
A|-0-0-7-7-7-0-0-8-0-0-8--0-0-5-5-5-0-0-7-0-0-7--0-0-3-3-3-0-0-5-0-0-5--0-0-1-1-1------------------|
e|------------------------------------------------------------------------------------------4-0-*--|
A|--------------------------------------------------------------------------------------3--------x2|
D|--------------------------------------------------------------------------------3-2-0---------*--|
G|-------------------------------------------------------------------------------------------------|
C|-------------------------------------------------------------------------------------------------|
  7/8 
A|0-0-7-0-0-0-7--0-0-8-0-0-0-8--0-0-5-0-0-0-5--0-0-7-0-0-0-7-|
e|-----------------------------------------------------------|
A|-----------------------------------------------------------|
D|-----------------------------------------------------------|
G|-----------------------------------------------------------|
C|-----------------------------------------------------------
A|-0-0-3-0-0-0-3--0-0-5-0-0-0-5--0-0-1-0-0-0-1----------5-4-2------------|
e|-----------------------------------------------------4-------*----------|
A|---------------------------------------------------3--------------------|
D|-----------------------------------------------3-2-----------*--x2------|
G|------------------------------------------------------------------------|
C|------------------------------------------------------------------------|

[Chorus]
   |  5/8  |
A|-----------6-6-6-2-2-------------2-2-2-0-0--2-2-3-3-3-------------------------|
e|5-5-5-5-5-------------2-2-2-2-2-----------------------*-----------------------|
A|-------------------------------------------------------x2---------------------|
D|------------------------------------------------------*-----------------------|
G|------------------------------------------------------------------------------|
C|------------------------------------------------------------------------------|
   |  5/8  |
A|------6-6--3-3-3-3-3-------------2-2-2-0-0--2-2-3-3-3-------------------------|
e|5-5-5-----------------2-2-2-2-2-----------------------------------------------|
A|------------------------------------------------------------------------------|
D|------------------------------------------------------------------------------|
G|------------------------------------------------------------------------------|
C|------------------------------------------------------------------------------|

A|-----------6-6-6-2-2-------------2-2-2-0-0--2-2-3-3-3-------------------------|
e|5-5-5-5-5-------------2-2-2-2-2-----------------------------------------------|
A|------------------------------------------------------------------------------|
D|------------------------------------------------------------------------------|
G|------------------------------------------------------------------------------|
C|------------------------------------------------------------------------------|

[2nd Verse]5/8
A|*-12-12-12-0-0-----------0-0--10-0-10-12-10--13-13-13-0-0--------0-0--1-0-1-4-0|
e|---------------13-13-13-----------------------------------3-3-3---------------|
A|*------------------------------------------------------------------------------|
D|------------------------------------------------------------------------------|
G|------------------------------------------------------------------------------|
C|------------------------------------------------------------------------------|
   5/8
A|-------0-0--------0-0--5-0-5-8-7--------0-0--------0-0--1-0-1-4-0-*-----------|
e|-5-5-5------8-8-8-----------------4-4-4------1-1-1------------------x4--------|
A|------------------------------------------------------------------*-----------|
D|------------------------------------------------------------------------------|
G|------------------------------------------------------------------------------|
C|------------------------------------------------------------------------------|

[Pre-chorus]5/8 
A|-0-0-7-7-7--0-0-8-8-8--0-0-5-5-5--0-0-7-7-7--0-0-3-3-3--0-0-1-1-1----------------|
e|-------------------------------------------------------------------------4-0*----|
A|-----------------------------------------------------------------------3------x2-|
D|-------------------------------------------------------------------3-2------*----|
G|---------------------------------------------------------------------------------|
C|---------------------------------------------------------------------------------|
  11/8
A|-0-0-7-7-7-0-0-8-0-0-8--0-0-5-5-5-0-0-7-0-0-7--0-0-3-3-3-0-0-5-0-0-5--0-0-1-1-1------------------|
e|------------------------------------------------------------------------------------------4-0-*--|
A|--------------------------------------------------------------------------------------3--------x2|
D|--------------------------------------------------------------------------------3-2-0---------*--|
G|-------------------------------------------------------------------------------------------------|
C|-------------------------------------------------------------------------------------------------|
  7/8 
A|0-0-7-0-0-0-7--0-0-8-0-0-0-8--0-0-5-0-0-0-5--0-0-7-0-0-0-7
e|----------------------------------------------------------|
A|----------------------------------------------------------|
D|----------------------------------------------------------|
G|----------------------------------------------------------|
C|----------------------------------------------------------|

A|-0-0-3-0-0-0-3--0-0-5-0-0-0-5--0-0-1-0-0-0-1----------5-4-2------------|
e|-----------------------------------------------------4-------*----------|
A|---------------------------------------------------3--------------------|
D|-----------------------------------------------3-2-----------*--x2------|
G|------------------------------------------------------------------------|
C|------------------------------------------------------------------------|

[2nd Chorus]
   |  5/8  |
A|-----------6-6-6-2-2-------------2-2-2-0-0--2-2-3-3-3-------------------------|
e|5-5-5-5-5-------------2-2-2-2-2-----------------------*-----------------------|
A|-------------------------------------------------------x2---------------------|
D|------------------------------------------------------*-----------------------|
G|------------------------------------------------------------------------------|
C|------------------------------------------------------------------------------|
   |  5/8  |
A|------6-6--3-3-3-3-3-------------2-2-2-0-0--2-2-3-3-3-------------------------|
e|5-5-5-----------------2-2-2-2-2-----------------------------------------------|
A|------------------------------------------------------------------------------|
D|------------------------------------------------------------------------------|
G|------------------------------------------------------------------------------|
C|------------------------------------------------------------------------------|

A|-----------6-6-6-2-2-------------2-2-2-0-0--2-2-3-3-3-------------------------|
e|5-5-5-5-5-------------2-2-2-2-2-----------------------------------------------|
A|------------------------------------------------------------------------------|
D|------------------------------------------------------------------------------|
G|------------------------------------------------------------------------------|
C|------------------------------------------------------------------------------|


|Guitar solo| |8/8|
A|-0-0-0-0-0-0-0-0------0-0-0-0-0-0--0-0-0-0-0-0------0-0-0-0-0-0-0-0-----------|
e|------------------------------------------------------------------------------|
A|------------------------------------------------------------------------------|
D|------------------7-7--------------------------7-7----------------------------|
G|------------------8-8--------------------------8-8----------------------------|
C|------------------9-9--------------------------9-9----------------------------|

A|0-0-0-0-----0-0--0-0-0-0-0-0-0----0-0-0-0---0-0-------------------------------|
e|----------------------------------------------------*-------------------------|
A|------------------------------------------------------x4----------------------|
D|--------7-7--------------------7----------7-----7---*-------------------------|
G|--------8-8--------------------8----------8-----8-----------------------------|
C|--------9-9--------------------9----------9-----9-----------------------------|

[3rd Chorus]
   |  5/8  |
A|-----------6-6-6-2-2-------------2-2-2-0-0--2-2-3-3-3-------------------------|
e|5-5-5-5-5-------------2-2-2-2-2-----------------------*-----------------------|
A|-------------------------------------------------------x2---------------------|
D|------------------------------------------------------*-----------------------|
G|------------------------------------------------------------------------------|
C|------------------------------------------------------------------------------|
   |  5/8  |
A|------6-6--3-3-3-3-3-------------2-2-2-0-0--2-2-3-3-3-------------------------|
e|5-5-5-----------------2-2-2-2-2-----------------------------------------------|
A|------------------------------------------------------------------------------|
D|------------------------------------------------------------------------------|
G|------------------------------------------------------------------------------|
C|------------------------------------------------------------------------------|

A|-----------6-6-6-2-2-------------2-2-2-0-0--2-2-3-3-3-------------------------|
e|5-5-5-5-5-------------2-2-2-2-2-----------------------------------------------|
A|------------------------------------------------------------------------------|
D|------------------------------------------------------------------------------|
G|------------------------------------------------------------------------------|
C|------------------------------------------------------------------------------|

[Outro] |7/8|
A|------------------------------------------------------------------------------|
e|5-5-5-5-5-5-5--5-5-5-5--------3-3-3-3-3-3-3---------------5-3-0-3-------------|
A|-----------------------3-3-3-----------------5-3-2----------------------------|
D|------------------------------------------------------------------------------|
G|------------------------------------------------------------------------------|
C|------------------------------------------------------------------------------|

A|------------------------------------------------------------------------------|
e|5-5-5-5-5--5-5-5-5--------3-3-3-3-3-3-3--0-3-5-----3-5------------------------|
A|-------------------3-3-3-----------------------2-3----------------------------|
D|------------------------------------------------------------------------------|
G|------------------------------------------------------------------------------|
C|------------------------------------------------------------------------------|

A|------------------------------------------------------------------------------|
e|5-5-5-5-5-5-5--5-5-5-5--------------------------------------------------------|
A|-----------------------3-3-3--5-5-5-5-5-5-5--5-6-8---------*------------------|
D|---------------------------------------------------5-7-8----x4----------------|
G|---------------------------------------------------------6-*------------------|
C|------------------------------------------------------------------------------|



************************************

 
| x  Dead note
| /  Slide up
| ~  Vibrato
 

************************************
Suggest correction
Creating personal tab
Creating personal tab
You can edit any tab online and save it as your Personal.

You can edit, replace or remove any tab part or add personal notes – all changes will be seen only by you.

Personal tabs can be accessed anytime from any device, even offline.
Learn more »
Give kudos to tab author, rate the tab!
1 2 3 4 5
comments
print report bad tab
guest
You may want to rate the tab now too:
select rating
Wanna post a correction for this tab? Suggest correction