Oops, an error
Loading. Please wait.

Camerawalls - Clinically Dead For 16 Hours Tab

version 2
version 2

Whole song

972 views 1 this week
3 commentsread comments
1 2 3 4 5
3 more votes to show rating
add to favorites
launch autoscroll
font size
0
reset
how to read this tab
guitar tuner
Autoscroll
slow
fast
+/-
esc
set tempo
stop
Help us to improve Ultimate-Guitar.com Take our survey!
×
Hi, this is tabbed by Einhander(elgago56 and his friend, elbaboy)
 -feel free to post any comments xD
--corrected by elbaboy =P


CLINICALLY DEAD FOR 16 HOURS ---By: Camerawalls

Am7                    D7
My heart is a terrible failing
Am7       D7          
I am just beginning 


[PLUCKING PART](or you could just use the chords and pluck)
e]-----7----------7----------8------------10-------------7----------7----------8---------10--[
B]---8---8------8---8------8---8-------10----10--------8---8------8---8------8---8-------10--[
G]-7-------7--7-------7--9-------9--11----------11---7-------7--7-------7--9-------9-----11--[
D]-------------------------------------------------------------------------------------------[
A]-------------------------------------------------------------------------------------------[
E]-------------------------------------------------------------------------------------------[

      G                   D          Em                        G                    D   Em    G--
to fathom Love’s difficult concept                   Swift beats are bending my mindset

[end of plucking part]
                        G       D
It’s wasting my time
                  Em                       C
It’s wasting so much precious time
                         G                   D
Touring white castles with other survivors
    Em           D
And then without warning I was…

Chorus:

G                           D
Clinically dead for sixteen hours
Em                                     C
Show me all the things my heart desires
G                    D                     Em          C
Let this be the longest happy dream of my life
G                           D
Clinically dead for sixteen hours
Em                                     C
Crossing all the roads where lines began
G                      D                     Em                C
Break my hourglass and let the sands move in time

[RONDALLA-LIKE PART](see bottom part for the rondalla-LIKE part tab)

              G                D                    Em
Three short moons I survived that fatal day
         G                       D
But reaching breaking point,
                 Em               
I sleep and face the knife of fate
               G               D           Em
And my heart breathe air for the first time
               G               D           Em
Yes, my heart breathe air for the first time

[PLUCKING PART] (or you could just use the chords and pluck)
e]-----7----------7----------8------------10-------[
B]---8---8------8---8------8---8-------10----10----[
G]-7-------7--7-------7--9-------9--11----------11-[
D]-------------------------------------------------[
A]-------------------------------------------------[
E]-------------------------------------------------[
       G        D            Em  C
A stitch in time and skin          
           G                               D            Em    C
Has changed my life and the lives of my kin

e]-----7----------7----------8------------10-------------7----------7----------8---------10--[
B]---8---8------8---8------8---8-------10----10--------8---8------8---8------8---8-------10--[
G]-7-------7--7-------7--9-------9--11----------11---7-------7--7-------7--9-------9-----11--[
D]-------------------------------------------------------------------------------------------[
A]-------------------------------------------------------------------------------------------[
E]-------------------------------------------------------------------------------------------[
       G        D            Em  C
A stitch in time and skin          
           G                               D            Em    C-
Has changed my life and the lives of my kin

                         G       D
I’m keeping my time
                          Em               C
I’m keeping my precious little time

                          G                           D
Touched by the Hand that’s been rocking my cradle
     Em        D
I’ll always remember I was

Chorus:

G                           D
Clinically dead for sixteen hours
Em                                     C
Show me all the things my heart desires
G                    D                     Em          C
Let this be the longest happy dream of my life
G                           D
Clinically dead for sixteen hours
Em                                     C
Crossing all the roads where lines began
G                      D                     Em                C
Break my hourglass and let the sands move in time

       G             
No tunnel, no light
      D        
No dead love ones
Em                    C
Maybe I need to teach someone
       G                D                 Em             C
That we won’t realize what we have till we lose them…
       G                D                 Em             C
That we won’t realize what we have till we lose them…
       G                D                 Em             C
That we won’t realize what we have till we lose them…
       G                D                 Em       C   [RONDALLA-LIKE PART]
That we won't realize what we have till we lose them



----------------------------------------------------------------------------------

RONDALLA LIKE-PART:-

NOTE:-for every chord shown in here, stroke it alternately(quickly)

e]-3---2---2---4---7---10---8---7---3---2---2---2---0---[
B]-3---3---3---5---7---10---8---7---3---3---3---3---0---[
G]-0---2---3---5---8---11---9---8---0---2---3---2---0---[
D]-0---0---0------------------------0---0---0---0---0---[
A]------------------------------------------------------[
E]------------------------------------------------------[

another note*

1. The last chord before the chorus, which is D, must be sustained, then sturm
normally again in the chorus part.
2. The last line , which is the 4th time we repeat
 "That we won't realize what we have till we lose them", 
the words from the have is prolonged so you won't have to change your
strumming tempo.

that's all

enjoy!
Suggest correction
Give kudos to tab author, rate the tab!
1 2 3 4 5
comments
print report bad tab
3 comments total.
0 reply
elbaboy 10 Oct 25, 2008 03:34 AM

elbaboy's version of rondalla-like part

e]-3---2---3---5---7---10---8---7---3---2---2---3---0---[
B]-3---3---3---5---7---10---8---7---3---3---3---3---0---[
G]-0---2---0---2---4---7----5---4---0---2---3---0---0---[
D]-0---0---0------------------------0---0---0---0---0---[
A]--------------------------------------------------2---[
E]--------------------------------------------------2---[

0 reply
elbaboy 10 Oct 25, 2008 03:34 AM

elbaboy's version of rondalla-like part


e]-3---2---3---5---7---10---8---7---3---2---2---3---0---[
B]-3---3---3---5---7---10---8---7---3---3---3---3---0---[
G]-0---2---0---2---4---7----5---4---0---2---3---0---0---[
D]-0---0---0------------------------0---0---0---0---0---[
A]--------------------------------------------------2---[
E]--------------------------------------------------2---[

0 reply
elbaboy 10 Oct 25, 2008 03:36 AM

sorry guys, the internet's quite slow so i made an error (the other two)
this is the correct one:

elbaboy's version of rondalla-like part


e]-3---2---3---5---7---10---8---7---3---2---2---3---0---[
B]-3---3---3---5---7---10---8---7---3---3---3---3---0---[
G]-0---2---0---2---4---7----5---4---0---2---3---0---0---[
D]-0---0---0------------------------0---0---0---0---2---[
A]--------------------------------------------------2---[
E]--------------------------------------------------0---[

guest
You may want to rate the tab now too:
select rating
Wanna post a correction for this tab? Suggest correction