Oops, an error
Loading. Please wait.

Camero Bliss - Bones Tab

4 views 1 this week
no commentswrite comment
1 2 3 4 5
3 more votes to show rating
add to favorites
launch autoscroll
font size
0
reset
how to read this tab
guitar tuner
Autoscroll
slow
fast
+/-
esc
set tempo
stop
Help us to improve Ultimate-Guitar.com Take our survey!
×
Author
Difficulty
Tuning
intermediate
D A D G B E
About this tab version
Because Im the one who made the damn song. Was this info helpful? Yes No
Camero Bliss - Bones Tab


[Intro]

Lead

e|--------------------------------------|
B|--------------------------------------|
G|10-10-10-10\7-7-7/9-9-9\5-5-5---------|
D|-------------------------------Repeat-|
A|-8-8-8-8-8\5-5-5/7-7-7\3-3-3----------|
D|--------------------------------------|

Rhythm

e|---------------------------------------------------------------------------------|
B|---------------------------------------------------------------------------------|
G|---------------------------------------------------------------------------------|
D|-8-8-8-8-8-8-8-8-8-8-8-8-8-8-8-8-10-10-10-10-10-10-10-10-10-10-10-10-10-10-10-10-|         
A|-8-8-8-8-8-8-8-8-8-8-8-8-8-8-8-8-10-10-10-10-10-10-10-10-10-10-10-10-10-10-10-10-|
D|-8-8-8-8-8-8-8-8-8-8-8-8-8-8-8-8-10-10-10-10-10-10-10-10-10-10-10-10-10-10-10-10-|
                                                                                   
e|-----------------------------------------------------------------|
B|-----------------------------------------------------------------|
G|-----------------------------------------------------------------|
D|-0-0-0-0-0-0-0-0-0-0-0-0-0-0-0-0-0-0-0-0-0-0-0-0-0-0-0-0-0-0-0-0-|
A|-0-0-0-0-0-0-0-0-0-0-0-0-0-0-0-0-0-0-0-0-0-0-0-0-0-0-0-0-0-0-0-0-|
D|-0-0-0-0-0-0-0-0-0-0-0-0-0-0-0-0-0-0-0-0-0-0-0-0-0-0-0-0-0-0-0-0-|


[Verse]

Lead

e|---------------------------------------|
B|----------------------------12---------|
G|----9----9-9------9----9-------9----9--|
D|-10---10-------10---10---10------10----|}PM
A|---------------------------------------|
D|---------------------------------------|
                              
e|---------------------------------------|
B|-----------------------12--------------|
G|---9---9-9-----9---9------9---9--------|
D|-9---9-------9---9---9------9----------|}PM
A|---------------------------------------|
D|---------------------------------------|


Rhythm

e|---------------------------------------|
B|---------------------------------------|
G|---------------------------------------|
D|-12----------------9-------------------|
A|-10----------------7-------------------|
D|-10----------------7-------------------|


[Chorus]

e|-------------------------------------------------------------------|
B|-------------------------------------------------------------------|
G|-------------------------------------------------------------------|
D|-10-10-10-10-10-10-10-10-10-10-10-10-10-10-10-10-10/12-12-12-12-12-|
A|-10-10-10-10-10-10-10-10-10-10-10-10-10-10-10-10-10/12-12-12-12-12-|
D|-10-10-10-10-10-10-10-10-10-10-10-10-10-10-10-10-10/12-12-12-12-12-|

e|-----------------------------------------------------------------------------|
B|-----------------------------------------------------------------------------|
G|-----------------------------------------------------------------------------|
D|-7-7-7-7-7-7-7-7-5-5-5-5-5-5-5-5-5-5-5-5-5-5-5-5\3-3-3-3-3-3-3\2-2-2-2-2-2-2-|
A|-7-7-7-7-7-7-7-7-5-5-5-5-5-5-5-5-5-5-5-5-5-5-5-5\3-3-3-3-3-3-3\2-2-2-2-2-2-2-|
D|-7-7-7-7-7-7-7-7-5-5-5-5-5-5-5-5-5-5-5-5-5-5-5-5\3-3-3-3-3-3-3\2-2-2-2-2-2-2-|


[Break Down/Outro]

e|---------------------------------------|
B|---------------------------------------|
G|---------------------------------------|
D|---------------------------------------|
A|---------------------------------------|
D|-0-10h12-0-0-10h12-0-0-10h12-0-8-8-8-8-|

e|---------------------------------------|
B|---------------------------------------|
G|---------------------------------------|
D|---------------------------------------|
A|---------------------------------------|
D|-0-10h12-0-0-10h12-0-0-10h12-0-5-5-5-5-|
                                                        X3
e|---------------------------------------|
B|---------------------------------------|
G|---------------------------------------|
D|---------------------------------------|
A|---------------------------------------|
D|-0-10h12-0-0-10h12-0-0-10h12-0-8-8-8-8-|

e|---------------------------------------|
B|---------------------------------------|
G|---------------------------------------|
D|---------------------------------------|
A|---------------------10-8-7-5----------|
D|-0-10h12-0-0-10h12-0-------------------|

e|---------------------------------------|
B|---------------------------------------|
G|---------------------------------------|
D|---------------------------------------|
A|---------------------------------------|
D|-0-10h12-0-0-10h12-0-7-5-3-2-0---------|


************************************

| h  Hammer-on
| /  Slide up
| \  Slide down 

************************************
Suggest correction
Give kudos to tab author, rate the tab!
1 2 3 4 5
comments
print report bad tab
guest
You may want to rate the tab now too:
select rating
Wanna post a correction for this tab? Suggest correction