Oops, an error
Loading. Please wait.

Canadian Moose - Maci Theme Bass Tab

60 views 1 this week
no commentswrite comment
1 2 3 4 5
3 more votes to show rating
add to favorites
launch autoscroll
font size
0
reset
guitar tuner
Autoscroll
slow
fast
+/-
esc
set tempo
stop
Help us to improve Ultimate-Guitar.com Take our survey!
×
          Maci Theme Song


Intro
|-------------------------hold---|
|-----hold------hold--1/3--------|
|-3--------5-5-------------------|
|--------------------------------|

Main Riff
|----------------------------------------------------|
|----------------------------------------------------|
|-2-2-2--3--2-4-2-4-2-4-2----2-2-2--3--2-4-2-4-2-4-2-|
|----------------------------------------------------|

Chorus
|-------------------------------------------------------------------|
|-------------------------------------------------------------------|
|-3-3-3-3-3-3-3-3-3-3-3-3-3-3-3-3-5-5-5-5-5-5-5-5-5-5-5-5-5-5-5-5-5-|
|-------------------------------------------------------------------|

|----------------------7-5------------------------------------------|
|-3-3-3-3-3-3-3-3-5h7------7-5/-3---Continue-till-end-of-chorus-----|
|---------------------------------3-3-3-3-3-3-3-3-3-3-3-3-3-3-3-3-3-|
|-------------------------------------------------------------------|

Bridge
|-----------------------------------|
|-----------------------------------|
|-3-3-3-3-3-3-3-3-3-3-3-3-3-3-3-3-3-|
|-----------------------------------|

Guitar Solo
|-----------------------------------------------------------------|
|-----------------------------------------------------------------|
|-3-3-3-3-3-3-3-3-3-3-3-3-3-3-3-3-5-5-5-5-5-5-5-5-5-5-5-5-5-5-5-5-|
|-----------------------------------------------------------------|

|-----------------4-6-----|
|-3-3-3-3-3-3-3-3-----4-6-|
|-------------------------|
|-------------------------|

Breakdown
|---------------------------------|
|---------------------------------|
|-2-2-2--3-0-5--5--2-2-2-3-0--5-5-|
|---------------------------------|

Outro
|------------------------------------------------------------|
|------------------------------------------------------------|
|-2-2-2--4-2-4-2-----2-2-2--4-2-4-2--------------------------|
|------------------------------------------------------------|

|-----------------------|
|-------hold till end---|
|-2---2---------------2-|
|-----------------------|

Suggest correction
Give kudos to tab author, rate the tab!
1 2 3 4 5
comments
print report bad tab
guest
You may want to rate the tab now too:
select rating
Wanna post a correction for this tab? Suggest correction