Oops, an error
Loading. Please wait.

Canadian Moose - Maci Theme Tab

119 views 1 this week
no commentswrite comment
1 2 3 4 5
please rate
add to favorites
launch autoscroll
font size
0
reset
how to read this tab
guitar tuner
Autoscroll
slow
fast
+/-
esc
set tempo
stop
Help us to improve Ultimate-Guitar.com Take our survey!
×
Contributor
                             Maci Theme Song
                              by Cody Smith

Intro
   ~~~~~~~~~~~~~~~~~~~~~~~~~~~~~~~~~~~~~~~~~~~~~~~~~~        ~~~~~~~
----------------------------------------------------------------------|
-/9-9---9---9----11----11----11-----13----13----13-----13-11-9--------|
-/9---9---9---9/----11----11----11/----13----13----13--13-11-9-(9)----|
----------------------------------------------------------------------|
----------------------------------------------------------------------|
----------------------------------------------------------------------|

Main Riff
                              >         >   >   >
----------------------------------------------------------------------|
----------------------------------------------------------------------|
----------------------------------------------------------------------|
-2-2-2--3--2-4-2-4-2-4-2----2-2-2--3--2-4-2-4-2-4---------------------|  X3
-0-0-0--3--0-0-0-0-0-0-0----0-0-0--3--0-0-0-0-0-0---------------------|
----------------------------------------------------------------------|

Chorus
----------------------------------------------------------------------|
----------------------------------------------------------------------|
----------------------------------------------------------------------|
-2--2--2-2---2--3--3--3-3---5--5--5-5---5-3---------------------------|
-0--0--0-0---0--3--3--3-3---5--5--5-5-------5-3-----------------------|
------------------------------------------------5-3b------------------|

                                                                 ~~
----------------------------------------------------------------------|
-------3-------------3------------------------------------------------|
-2--2--2-------2--2--2-2-0---3--3--5-(5)------------------------------|
-2--2--2-2-2---2--2--2-2-x---5--5--5--5-------------------------------|
-0--0----0-0---0--0------0---5--5--5--5--------9/--5-3-----3b---------|
-----------3-------------2-----------------/11---------5-3----1-1-----|

Bridge
----------------------------------------------------------------------|
----------------------------------------------------------------------|
----------------------------------------------------------------------|
----------3----------------------5p3-3--------------------------------|
-------------1--3-------1--3--4---------1--3--1-----------------------|
-1--3--4-----------1---------(0)-----------------1b-------------------|

Guitar Solo   w/heavy reverb
                     ~~~~~~
-----------14-----------------12-----------------------------------15------|
-----12-14b--14pb-15-12-(12)----12-------------12h14bp---------------------|
-/14------------------------------14-12------13--------12-14-12-14b---14p--|
----------------------------------------14-14------------------------------|
---------------------------------------------------------------------------|
---------------------------------------------------------------------------|
                                           ~~~~~~~~~~~~
--------------------------------------------------------10-----------------|
-12-----------15--15--15----14-12----------15--15--15---10h12p10-----------|
----14-12-12/---16--16--16--14-12-14---12/---16--16--16----------12--------|
---------------------------------(14)-------------------------------14-----|
---------------------------------------------------------------------------|
---------------------------------------------------------------------------|

---------------------------------------------------------12----12----12----|
----12----12----12---------------12-----12-----12--12-15b---15b---15b------|
----12----12----12--------12-14b----14b----14b-----------------------------|
-14----14----14-----14-14--------------------------------------------------|
---------------------------------------------------------------------------|
---------------------------------------------------------------------------|

----12----12-15b-15-14-12-------------------------------------------------|
-15b---15b----------------15-14-12-------------------------------12-------|
-----------------------------------14-12-------------------12-14----14-12-|
-----------------------------------------14-12-------12-14----------------|
-----------------------------------------------14-12----------------------|
--------------------------------------------------------------------------|
                                       ~~~~
---------------------------------------------------------------------------|
---------------------------------------------------------------------------|
------------------12h14/16-16b-12-14-12-----12h13p12-----------------------|
-12-14----------13------------------------------------14-------------------|
-------14-12--14-----------------------------------------14/---------------|
---------------------------------------------------------------------------|
              ~~~~~
--------------------------------------------------------------------------|
--------------------------------------------------------------------------|
--------12b---------------12b--12b--12b--12b--12b--12b--12b----14-16b-----|
---13-12----14------14-14----14---14---14---14---14---14----14------------|
-14-----------------------------------------------------------------------|
--------------------------------------------------------------------------|

--------12-15-12--12-14-15------------------------------------------------|
------12------------------12--12h15p12h14p12h15p12h14p12h15p12h14p12------|
-12h13--------------------------------------------------------------------|
--------------------------------------------------------------------------|
--------------------------------------------------------------------------|
--------------------------------------------------------------------------|
                                                     ~~~
--------------------------------------------------------------------------|
--------------------------------------------------------------------------|
-12h14p12h14p12-----------------------------------------------------------|
----------------12h14p12h14p12----------12h14p12-14-14--------------------|
-------------------------------14p12h14-----------------------------------|
--------------------------------------------------------------------------|

--------------------------------------------------------------------------|
--------------------------------------------------------------------------|
--------------------------------------------------------------------------|
-12-----------------------------------------------------------------------|
----14-12-----------------------------------------------------------------|
----------14-12/10b-------------------------------------------------------|

Breakdown
---------------------------------------------------------------------------|
---------------------------------------------------------------------------|
---------------------------------------------------------------------------|
-2-2-2--3---5--5--2-2-2-3----5-5-------------------------------------------| X2
-0-0-0--3-0-5--3--0-0-0-3-0--5-3-------------------------------------------|
---------------------------------------------------------------------------|

Outro
p.m...............................
---------------------------------------------------------------------------|
---------------------------------------------------------------------------|
---------------------------------------------------------------------------|
-2-2-2--4-2-4-2-----2-2-2--4-2-4-2-----------------------------------------|   X3
-0-0-0--0-0-0-0-----0-0-0--0-0-0-0-----------------------------------------|
---------------------------------------------------------------------------|

----------------------0---------------------------------------------------|
--------------------------------------------------------------------------|
------------1-----0h1-----------------------------------------------------|
-2----------2-------------------------------------------------------------|
-0----------2-------------------------------------------------------------|
-----0-3bp0-0-------------------------------------------------------------|
comments
We did not receive enough feedback on this tab! Please rate:
print report bad tab
1 2 3 4 5
I want to post or [tab]
guest
You may want to rate the tab now too:
select rating
Please do not post tabs as comments. Select "correction" instead!