Oops, an error
Loading. Please wait.

Capital Lights - Let The Little Lady Talk Tab

version 1
version 1

Whole song

524 views 1 this week
2 commentsread comments
1 2 3 4 5
2 more votes to show rating
add to favorites
launch autoscroll
font size
0
reset
how to read this tab
guitar tuner
Autoscroll
slow
fast
+/-
esc
set tempo
stop
Help us to improve Ultimate-Guitar.com Take our survey!
×
Author
im pretty sure that the intro and chorus are the same thing
                    however many times they play it
E-------------------|
B-------------------|
G-------------------|
D--9999--55--44--0--|
A--9999--55--44--0--|
D--9999--55--44--0--|

Verse:
E--000000000000000--|
B--000000000000000--|
G--000000000000000--|
D-------------------|
A-------------------|
D-------------------| listen to the song and play for as long as they play it
 PM*****************

Pre-chorus:
E--------|
B--------|
G--------|
D--9--7--|
A--9--7--|
D--9--7--|

unfortunately i dont know the bridge

if you figure out how to play the bridge let me know at sammyghomedog@hotmail.com
Suggest correction
Give kudos to tab author, rate the tab!
1 2 3 4 5
comments
print report bad tab
2 comments total.
0 reply
darkwarrior2042 31 Aug 23, 2008 02:36 PM

it sounds better if you play it in power chords like this

e|-------------------------
B|-------------------------
G|-------------------------
D|--9999--55--44-0---------
A|--9999--55--44-0---------
E|--7777--33--22-0---------

and do the pre-chorus like this

e|------------------
B|------------------
G|------------------
D|--9--7------------
A|--9--7------------
E|--7--5------------

0 reply
blackomen9 165 Nov 09, 2008 02:46 PM

no it sounds better in a drop D cuz it is in drop D...hmmm but im posting a tab for the whole album later so yea check that out if u need any help with it

guest
You may want to rate the tab now too:
select rating
Wanna post a correction for this tab? Suggest correction