Oops, an error
Loading. Please wait.

Capital Lights - Outrage Tab

1,896 views 1 this week
1 commentread comment
1 2 3 4 5
please rate
add to favorites
launch autoscroll
font size
0
reset
how to read this tab
guitar tuner
Autoscroll
slow
fast
+/-
esc
set tempo
stop
Help us to improve Ultimate-Guitar.com Take our survey!
×
Author
Difficulty
Tuning
novice
D A D G B E
By the way tis is my first tab s dont get mad at me if it is wrong

I think the intro is the same as the chorus and outro

D-11------88------33------55p3h5-|     last time thought do this D-11111--888
A-11------88------33------55p3h5-|
D-11------88------33------55p3h5-|
G--------------------------------|
B--------------------------------|
E--------------------------------|
Ones^

verse is

D5555------1111-----3333----0000|
A5555------1111-----3333----0000|
D5555------1111-----3333----0000|
G-------------------------------|
B-------------------------------|
E-------------------------------|

Pre-chorus is

D1~---3~---5~|
A1~---3~---5~|
D1~---3~---5~|
G------------|
B------------|
E------------|


Bridge Is

D-5--------1---------3| then speed up
A-5--------1---------3|
D-5--------1---------3|
G---------------------|
B---------------------|
E---------------------|

www.myspace.com/capitallights
Suggest correction
Give kudos to tab author, rate the tab!
1 2 3 4 5
comments
print report bad tab
1 comment total.
0 reply
Trippydabassist 10 wrote on August 18 2008, 09:01 pm

on coming out of the intro/chorus

D---888--777-------------|
A---888--777-------------|
D---888--777-------------|
G------------------------|
B------------------------|
E------------------------|

that how i would say. i dont think its really a hammeron/pulloff.
great job on the tab though.

D-11------88------33------55--33-|
A-11------88------33------55--33-|
D-11------88------33------55--33-|
G--------------------------------|
B--------------------------------|
E--------------------------------|

guest
You may want to rate the tab now too:
select rating
Wanna post a correction for this tab? Suggest correction