Oops, an error
Loading. Please wait.

Caramel - Jauh Tab

1,472 views 1 this week
no commentswrite comment
1 2 3 4 5
excellent!
x 1
add to favorites
launch autoscroll
font size
0
reset
how to read this tab
guitar tuner
Tab Pro tools
  • play this tab
  • loop segment
  • change instrument
  • show fretboard
  • metronome
Autoscroll
slow
fast
+/-
esc
set tempo
stop
Contributor
Song           : Jauh
Artist         : Caramel
Tabbed by      : yoos (yoosyoes.blogspot.com)


@intro
e|--0---0---0---1---0---0---0---1---0---0---0---0---1---1---1---1----|
B|-------------------------------------------------------------------|
G|----0---0---0---0---0---0---0---0---0---0---0---0---2---2---2---2--|
D|------------------2-------------------------------0----------------|
A|--3-------------------------------0--------------------------------|
E|-------------------------------------------------------------------|

e|--3---3---3---3------|
B|------------------3--|
G|----0---0---0---0----|
D|---------------------|
A|---------------------|
E|--3---------------3--|

e|----0---3-----------------0-----------------------------0------------|
B|------------3---3---1---3---0---0-------0-1---------3-------3---3----|
G|--0---0---0---0---0---0-------0---0-2-------0---0-----2---2---0---0--|
D|----------------------------2-------3-3-------2---2-0----------------|
A|----3---------------0-----------------------3------------------------|
E|------------3-----------------------------------------------3--------|

e|----0---0-1-3-------------------------------------------------------------------|
B|------------------0-1---0---------------1-----------3---3---1---0---1-----------|
G|--0---0-------0-2-----2---2-0---0---2-------0---0-----2---2---0---0-----0----0--|
D|----------------------------2-2---2-3-3---3---2---2-0-----------------2---2-----|
A|----3---------------0-----------------------3-----------------------3-----------|
E|------------3-----------------------------------------------3-------------------|

@pernah ada
e|--0---3-0---------------0-------------------------0----------------|
B|----------3---3---1---3---0---0-------0-1-----1-----3-3-1-3---3----|
G|----0-------0---0---0-------0---0-2-------0------------------------|
D|--------------------------2-------3-3-------2---2-0---------0---0--|
A|--3---------------0-----------------------3------------------------|
E|----------3-----------------------------------------------3--------|

e|--0---3-0-----------------------------------------0----------------|
B|----------3---3---1---3-1-0---0-------0-1-----1-1---3-3-1-1-0---0--|
G|----0-------0---0---0-------0---0-2-------0-------------------2----|
D|--------------------------2-------3-3-------2-----0----------------|
A|--3---------------0-----------------------3------------------------|
E|----------3-----------------------------------------------3--------|

e|-----------------------------------------------------|
B|--1---1---0---0-------------------0---1---3---3---3--|
G|----0---0---0---0-2---2---2---2-----0---0---0---0----|
D|----------2---------2---2---2---2--------------------|
A|--3---------------0----------------------------------|
E|----------------------------------3-------3-------3--|

@jauh kau pergi...
e|----------3---1-0---------------------------------0----------------|
B|--1---1-----------1---3-1-0---0-------0-1-----1-1---3-3-1-3---3----|
G|----0---0---0-------2-------0---0-2-------0-----------------0---0--|
D|--------------------------2-------3-3-------2-----0----------------|
A|--3---------------0-----------------------3------------------------|
E|----------3-----------------------------------------------3--------|

e|----------3---1-0---------------------------------0----------------|
B|--1---1-----------1---3-1-0---0-------0-1-----1-1---3-3-1-1-0---0--|
G|----0---0---0-------2-------0---0-2-------0-------------------2----|
D|--------------------------2-------3-3-------2-----0----------------|
A|--3---------------0-----------------------3------------------------|
E|----------3-----------------------------------------------3--------|

e|----------------------------------------------0-1-3--|
B|--1---1---0---0-------------------0---1---3----------|
G|----0---0---0---0-2---2---2---2-----0---0---0--------|
D|----------2---------2---2---2---2--------------------|
A|--3---------------0----------------------------------|
E|----------------------------------3---------------3--|

@interlude
e|------3-3-1-0-------------------0------------------------1-0--1---|
B|--1-----------3---3---1---1-1-3---0---0-----------0-1-1-----------|
G|----0-----------0---0---2-----------0---0-2---2-2-------0---------|
D|----------------------------------2-------3-3---------------------|
A|--3-------------------0-------------------------------3-----------|
E|--------------3---------------------------------------------------|

e|--1-0---3-1-0----------|
B|------3-------3---3----|
G|----------------0---0--|
D|--0--------------------|
A|--------------3--------|
E|-----------------------|

e|-----------------------------------------------------|
B|--1---1---0---0-------------------0---1---3---3---3--|
G|----0---0---0---0-2---2---2---2-----0---0---0---0----|
D|----------2---------2---2---2---2--------------------|
A|--3---------------0----------------------------------|
E|----------------------------------3-------3-------3--|
comments
We did not receive enough feedback on this tab! Please rate:
print report bad tab
1 2 3 4 5
I want to post or [tab]
guest
You may want to rate the tab now too:
select rating
Please do not post tabs as comments. Select "correction" instead!