Oops, an error
Loading. Please wait.

Carbohydrom - Penguin Cap Tab

version 1
version 1

Whole song

Interactive

1,303 views 6 this week
no commentswrite comment
1 2 3 4 5
please rate
add to favorites
launch autoscroll
font size
0
reset
how to read this tab
guitar tuner
Tab Pro tools
  • play this tab
  • loop segment
  • change instrument
  • show fretboard
  • metronome
Autoscroll
slow
fast
+/-
esc
set tempo
stop
Contributor
#----------------------------------PLEASE NOTE---------------------------------#
#This file is the author's own work and represents their interpretation of the #
#song. You may only use this file for private study, scholarship, or research. #
#------------------------------------------------------------------------------##

This is the lead guitar for the song 'Penguin Cap' by CarboHydroM (http://www.carbohydrom.net/).
Check out the Power Tab on Ultimate-Guitar.com as well.
If you have any questions/comments/corrections, please email me at
 gooz_random [at] hotmail [dot] com
 - G Vohra (2009)

Gtr I (E A D G B E) - 'Lead Guitar'

  Q=180
 4/4
00:00
  Gtr I
|-/12----12----|-12-----------------|-------------------|
|--------------|-----12b14--12------|---------11h12-----|
|--------------|----------------15--|-14---14-------14--|
|--------------|--------------------|-------------------|
|--------------|--------------------|-------------------|
|--------------|--------------------|-------------------|


00:04                    ~~
|-----------|---------------|---------------|
|-----------|---------------|---------------|
|-----------|---------------|---------------|
|-12--------|-------14--12--|---------------|
|-----------|-14------------|-14------14-13-|
|-----------|---------------|---------------|


00:08                                               ~~
|-----------------------------------------------|---------------|
|-----------------------------------------------|---------------|
|-----------/14------------/14--------------14--|---------------|
|-----------------------------------------------|-14------14-12-|
|-12---12---------12---12-------12--12-12-------|---------------|
|-----------------------------------------------|---------------|


00:13
                                            ~~              ~~
|------------------|---------------------|---------------|----------------|
|------------------|---------------------|-------17--15--|----------------|
|----------16--14--|-16b17------17-16p14-|-16------------|-16------16-15--|
|-/16---16---------|---------------------|---------------|----------------|
|------------------|---------------------|---------------|----------------|
|------------------|---------------------|---------------|----------------|


00:19
|---------------------------------------------------|
|---------------------------------------------------|
|-14---14---------14--------------------------------|
|------------------------/16--16--12--------(12)----|
|-----------12--------12----------------------------|
|---------------------------------------------------|


00:23                                        ~~
|-------------------|-----------|---------------|---------------|
|---------11h12-----|-----------|---------------|---------------|
|-14---14-------14--|-----------|---------------|---------------|
|-------------------|-12--------|-------14--12--|---------------|
|-------------------|-----------|-14------------|-14------14-13-|
|-------------------|-----------|---------------|---------------|


00:29                                                 ~~
|-----------------|--------------------|--------------------|-------|
|-----------------|--------------------|--------------------|-------|
|-----------/14---|----------/14-------|--------14----------|-------|
|-----------------|--------------------|------------14------|-14-12-|
|-12---12---------|-12---12-------12---|-12-12--------------|-------|
|-----------------|--------------------|--------------------|-------|


00:34
                                            ~~
|------------------|---------------------|---------------|---------------------|
|------------------|---------------------|-------17--15--|-17b18---17-15-------|
|----------16--14--|-16b17------17p16p14-|-16------------|----------------16---|
|-/16---16---------|---------------------|---------------|---------------------|
|------------------|---------------------|---------------|---------------------|
|------------------|---------------------|---------------|---------------------|


00:40
                                                       PM-----------------|
|-------------------------------------------|--------------------------------|
|-------------------------------------------|--------------------------------|
|-14---14---------14------------------------|------------------12--13--14-15-|
|------------------------/16--16--12--------|-(12)----12-14-16---------------|
|-----------12--------12--------------------|--------------------------------|
|-------------------------------------------|--------------------------------|

00:44
                                 ~~
|-------------|---------------|-------------|--------------------|
|-------------|---------------|-------------|-----------------14-|
|-16----15----|-14h===16------|-------14----|-----------14-16----|
|-------------|-----------16--|-17----------|-15b16--------------|
|-------------|---------------|-------------|--------------------|
|-------------|---------------|-------------|--------------------|

00:51
|-----------------|-/14--------14--|----------------------|
|-15-----14-15-17-|----------------|-17---15h17p15--14----|
|-----------------|--------14------|----------------------|
|-----------------|----------------|----------------------|
|-----------------|----------------|----------------------|
|-----------------|----------------|----------------------|

00:54
|---------------|---------------------|
|-15------------|---------------------|
|---------------|----------14--16-14--|
|---------14h15h|=16p15h16------------|
|---------------|---------------------|
|---------------|---------------------|

00:58
|---------------|---------------------|---------------|
|---------------|---------------------|---------------|
|---------------|---------------------|---------------|
|---------------|----------12--14-12--|---------------|
|-17------12h13h|=14p13h14------------|-14------14p13-|
|---------------|---------------------|---------------|

01:00
|---------------------|--------------------------------------------------|
|---------------------|--------------------------------------------------|
|----------14---------|----14------------14---14--16-14------------------|
|---------------------|----------------------------------14-------14h15h=|
|-12p11h12------12p11h|=12------12p11h12---------------------------------|
|---------------------|--------------------------------------------------|

01:06
|---------------------|---------------------|---------------------|
|---------------------|---------------------|----------15--17p15--|
|----------14--16-14--|-16b17------17p16p14-|-16p14h16------------|
|-16p15h16------------|---------------------|---------------------|
|---------------------|---------------------|---------------------|
|---------------------|---------------------|---------------------|

01:09
|---------------|-----------------|----------------|
|---------------|-----------------|----------------|
|-16------16p15-|-14---14---------|-14-------------|
|---------------|-----------------|-----12S16--16--|
|---------------|-----------\12---|----------------|
|---------------|-----------------|----------------|

01:13
|-----------------------|---------------------|
|-----------------------|---------------------|
|-----------------------|----------14--16-14--|
|-12--------------14h15h|=16p15h16------------|
|-----------------------|---------------------|
|-----------------------|---------------------|

01:17
|---------------|---------------------|-----------------|
|---------------|---------------------|-----------------|
|---------------|---------------------|-----------------|
|---------------|----------12--14-12--|-----------------|
|-17------12h13h|=14p13h14------------|-14------14p13---|
|---------------|---------------------|-----------------|

01:22
|---------------------|-----------------------|---------------------|-------|
|---------------------|-----------------------|---------------------|-------|
|----------14---------|----14------------14---|-14--16-14-----------|-------|
|---------------------|-----------------------|------------14-------|-14h15-|
|-12p11h12------12p11h|=12------12p11h12------|---------------------|-------|
|---------------------|-----------------------|---------------------|-------|

01:27
|---------------------|---------------------|---------------------|
|---------------------|---------------------|----------15--17p15--|
|----------14--16-14--|-16b17------17p16p14-|-16p14h16------------|
|-16p15h16------------|---------------------|---------------------|
|---------------------|---------------------|---------------------|
|---------------------|---------------------|---------------------|

01:31
|---------------|-----------------|----------------|
|---------------|-----------------|----------------|
|-16------16p15-|-14---14---------|-14-------------|
|---------------|-----------------|-----12S16--16--|
|---------------|-----------\12---|----------------|
|---------------|-----------------|----------------|

01:35
|-----------|---------|
|-----------|---------|
|-----------|---------|
|-12--------|-(12)----|
|-----------|---------|
|-----------|---------|

01:38
|-------------|-------------|-----------|---------------------|
|-------------|-------------|-----------|---------------------|
|-16------15--|-14----------|------14---|---------------------|
|-------------|---------16--|-17--------|-16--(16)p=====14p12-|
|-------------|-------------|-----------|---------------------|
|-------------|-------------|-----------|---------------------|

01:43
|-------------|-------------|-----------|-------------|
|-------------|-------------|-----------|-------------|
|-16------15--|-14----------|-----------|-------------|
|-------------|---------16--|-17---16---|-12----------|
|-------------|-------------|-----------|-------------|
|-------------|-------------|-----------|-------------|

01:48
|-------------------|-------------------|-----------|----------------------|
|-------------------|-------------------|-----------|----------------------|
|-16-16--16--16--15-|-14-14--14--14-----|------14---|----------------------|
|-------------------|----------------16-|-17--------|-/16--(16)p=====14p12-|
|-------------------|-------------------|-----------|----------------------|
|-------------------|-------------------|-----------|----------------------|


01:53                                       ~~
|-------------------|-------------------|-----------|-------------|
|-------------------|-------------------|-----------|-------------|
|-16-16--16--16--15-|-14-14--14--14-----|-----------|-------------|
|-------------------|----------------16-|-17---16---|-12----------|
|-------------------|-------------------|-----------|-------------|
|-------------------|-------------------|-----------|-------------|


01:58
      PM       PM       PM       PM     PM     PM     PM     PM
|-----------------|-----------------|-------------|-------------|
|-----------------|-----------------|-------------|-------------|
|-----------------|-----------------|-------------|-------------|
|-12-----10-------|-12-----10-------|-9-----------|-9-----------|
|-----------------|-----------------|------8------|------8------|
|----10-------10--|----10-------10--|---7------7--|---7------7--|

02:04
      PM       PM       PM       PM                  ~~~~~~~
|-----------------|-----------------|--------------|-----------|
|-----------------|-----------------|--------------|-----------|
|-----------------|-----------------|--------------|-----------|
|-12-----10-------|-12-----10-------|-9-9--9--9--9-|-8----7----|
|-----------------|-----------------|--------------|-----------|
|----10-------10--|----10-------10--|--------------|-----------|

02:09
      PM       PM       PM       PM     PM ~   PM     PM ~   PM
|-----------------|-----------------|-------------|-------------|
|-----------------|-----------------|-------------|-------------|
|--------10-------|--------10-------|-------------|-------------|
|-12-----10-------|-12-----10-------|-9-----------|-9-----------|
|-----------------|-----------------|------8------|------8------|
|----10-------10--|----10-------10--|---7------7--|---7------7--|

02:15
      PM       PM       PM       PM                   ~~
|-----------------|-----------------|--------------|--------------|
|-----------------|-----------------|--------------|---------24S1-|
|--------10-------|--------10-------|--------------|-10------24S1-|
|-12-----10-------|-12-----10-------|-9-9--9--12---|---------24S1-|
|-----------------|-----------------|--------------|--------------|
|----10-------10--|----10-------10--|--------------|--------------|

02:20
   TP TP TP TP TP TP TP TP   TP TP TP TP TP TP TP TP   TP TP TP TP TP TP TP TP 
|-------------------------|-------------------------|-------------------------|
|-------------------------|-------------------------|-------------------------|
|-------------------------|-------12----14----12----|-------------------------|
|-11-12-14-12-11-12-14-12-|-11-12----12----12----12-|-11-12-14-12-11-12-14-12-|
|-------------------------|-------------------------|-------------------------|
|-------------------------|-------------------------|-------------------------|

TP TP TP TP TP TP TP TP
-------------------------|
-------------------------|
-------12----14----12----|
-11-12----12----12----12-|
-------------------------|
-------------------------|

02:26
                                      ~~         ~~
|-----------------------|--------------------|-----------------------|-------------------|
|-----------------------|--------------------|-----------------------|-------------------|
|-14---14-14-14---14-14-|-14-----------------|-----------------------|-------------------|
|-----------------------|-----14b16--14--13--|-12---12-12-12---12-12-|-12--11-11-12--14--|
|-----------------------|--------------------|-----------------------|-------------------|
|-----------------------|--------------------|-----------------------|-------------------|
           

02:32                                                 ~~                        ~~
|----------------|------------------------|---------------------|------------------------|
|----------------|------------------------|---------------------|------------------------|
|---------11--14-|-13--14--13h14p11-------|---------------------|------------------------|
|-12---12--------|------------------12----|----11-12-14--12--14-|-14b16--14-12-14--12-11-|
|----------------|---------------------12-|-14------------------|------------------------|
|----------------|------------------------|---------------------|------------------------|

02:36
                                     ~~
|---------------------|-----------|-------|
|---------------------|-15--------|-------|
|----------14--16-14--|-----------|-14----|
|-16p15h16------------|-----------|-12----|
|---------------------|-----------|-12----|
|---------------------|-----------|-10----|


Tablature Legend
----------------
 h   - hammer-on
 p   - pull-off
 b   - bend
 pb  - pre-bend
 r   - bend release (if no number after the r, then release immediately)
 /\  - slide into or out of (from/to "nowhere")
 s   - legato slide
 S   - shift slide
  - natural harmonic
[n]  - artificial harmonic
n(n) - tapped harmonic
 ~   - vibrato
 tr  - trill
 T   - tap
 TP  - trem. picking
 PM  - palm muting
\n/  - tremolo bar dip; n = amount to dip
 \n  - tremolo bar down
 n/  - tremolo bar up
/n\  - tremolo bar inverted dip
 =   - hold bend; also acts as connecting device for hammers/pulls
 <>  - volume swell (louder/softer)
 x   - on rhythm slash represents muted slash
 o   - on rhythm slash represents single note slash

Misc Legend
-----------
 |  - bar
||  - double bar
||o - repeat start
o|| - repeat end
*|  - double bar (ending)
 :  - bar (freetime)
 $  - Segno
 &  - Coda
Tempo markers -  = BPM(8/16=s8/s16), where s8 = swing 8ths, s16 = swing 16ths


***************************************************************************************
* Generated using Power Tab Editor by Brad Larsen - http://powertab.guitarnetwork.org *
***************************************************************************************
comments
We did not receive enough feedback on this tab! Please rate:
print report bad tab
1 2 3 4 5
I want to post or [tab]
guest
You may want to rate the tab now too:
select rating
Please do not post tabs as comments. Select "correction" instead!