Oops, an error
Loading. Please wait.

Carly And Ben - Tik Tok Kesha Tab

25,538 views 1 this week
3 commentsread comments
1 2 3 4 5
excellent!
x 9
add to favorites
launch autoscroll
font size
0
reset
how to read this tab
guitar tuner
Tab Pro tools
  • play this tab
  • loop segment
  • change instrument
  • show fretboard
  • metronome
×
Best way to learn
"Carly And Ben - Tik Tok Kesha"
Autoscroll
slow
fast
+/-
esc
set tempo
stop
Contributor
-------------------------------------------------------------------------------
                             Tik Tok - Carly and Ben
-------------------------------------------------------------------------------
Tabbed by: BenJamminAsh
Email: maip233@yahoo.com

Tuning: Standard

Verse 1:

e|--------------------|
B|--------------------|
G|--------------------|
D|--------------------|
A|--5-5-5---5-7-7-8---|
E|--------------------|  X3

e|--------------------|
B|--------------------|
G|---7----9----10-----|
D|--------------------|
A|---5----7----8------|
E|---6----8----10-----|  X3

Chorus:

e|---1----3----5--------3----5----3|
B|---3----5----6--------3----6----5|
G|---3----5----7---X3---3----7----5|
D|---3----5----7--------5----7----5|
A|---1----3----5--------5----5----3|
E|----------------------3----------|  X2

Verse 2:

e|-------6----------------------------|
B|-----6-6--------8-10--10--8h10p8----|
G|---7-7-----7/9--9-10--10--9h10p9----|
D|---8-------8/10---------------------|  X3

e|--------------------|
B|--------------------|
G|---7----9----10-----|
D|--------------------|
A|---5----7----8------|
E|---6----8----10-----|  X3

Bridge:

e|---0----0----0----0----|
B|---6----3----6----5----|
G|---7----3----7----5----|
D|---8----5----7----5----|  X4

Chorus:

e|---1----3----5--------3----5----3|
B|---3----5----6--------3----6----5|
G|---3----5----7---X3---3----7----5|
D|---3----5----7--------5----7----5|
A|---1----3----5--------5----5----3|
E|----------------------3----------|  X2


Just watch the video to get a feel for the rhythms.  The bridge is just mainly picking 
individual strings.  Email's at the top if you guys have any questions or concerns!


| /  slide up
| \  slide down
| h  hammer-on
| p  pull-off
| ~  vibrato
| +  harmonic
| x  Mute note
===============================================================================
comments
print report bad tab
3 comments total.
0 reply
silderoy wrote on March 23 2010, 05:59 am

not exacly the right tones.
the real song is on other scale. :(

0 reply
silderoy wrote on March 23 2010, 06:01 am

the real chords are C, D, Em.

0 reply
Vone wrote on April 18 2010, 07:14 pm

e|---------|
B|---------|
G|---------|
D|----7----|
A|--5---5--|
E|---------| should be added to the end of verse one

I want to post or [tab]
guest
You may want to rate the tab now too:
select rating
Please do not post tabs as comments. Select "correction" instead!