Oops, an error
Loading. Please wait.

Carly Comando - Everyday Tab

version 1
version 1

Whole song

Interactive

18,424 views 1 this week
4 commentsread comments
1 2 3 4 5
2 more votes to show rating
add to favorites
launch autoscroll
font size
0
reset
how to read this tab
guitar tuner
Autoscroll
slow
fast
+/-
esc
set tempo
stop
Help us to improve Ultimate-Guitar.com Take our survey!
×
Author
Difficulty
intermediate
----------------------------------------------------------------------------
                             Everyday - Carly Comando
----------------------------------------------------------------------------
Tabbed by: TJ
Email:

First tab - Here is how I play it. It plays well on the guitar, especially fingerpicked.

Tuning: Standard

   Am
e--------------------                  e-----------------|
B------5-----5-------                  B-----------------|
G--------5-----5-----   OR JUST THIS   G------5---5---5--|   Play for a bit
D----7-----7-----7---                  D----7---7---7----|
A--------------------                  A-----------------|
E--------------------                  E-----------------|

                        Then we move on to...

     F/A (I think)
e--------------------------------------|
B------------6----------------6--------|
G------5---5---5---5----5---5---5---5--|     Only play what's shown once
D----7---7-------7----7---7-------7----|
A--------------------------------------|
E--------------------------------------|

                         And then of course...
    C#m7
e|-----------------------------------------------------------------------|
B|--5-----5-5-----5-5-----5-5-----5-5-5-----5-5-----5-5-----5-5-----5-5--|
G|----5-------5-------5-------5---------4-------4-------4-------4--------|
D|--5---5---5---5---5---5---5---5-----6---6---6---6---6---6---6---6---6--|
A|-----------------------------------------------------------------------|
E|-----------------------------------------------------------------------|

This is all I play for this song, I'm sure there is more to it, but I like the sound of 
 Let me know what you think
============================================================================
Suggest correction
Give kudos to tab author, rate the tab!
1 2 3 4 5
comments
print report bad tab
4 comments total. Showing first comments.
0 reply
toine 1,219 Feb 14, 2008 04:17 PM

hey man it's about time someone tabbed this :p nice job ;)

0 reply
toine 1,219 Feb 14, 2008 04:24 PM

hey i just figured another thing out at about 2.34
E-----------------------
B-----------------------
G--5-5-5-5-5-5-5-0-5-----
D-7-7-7-7-7-7-7-7-7-----
this has different variations in it :p

0 reply
purplestainrhcp 31 Feb 18, 2008 09:22 PM

Don't play a C#m7 where i have it listed above the tab - instead play a C, followed by a C#m7 after. Sorry, just a little correction.

guest
You may want to rate the tab now too:
select rating
Wanna post a correction for this tab? Suggest correction