Oops, an error
Loading. Please wait.

Carolina Spine - Psycho Bass Tab

74 views 3 this week
no commentswrite comment
1 2 3 4 5
please rate
add to favorites
launch autoscroll
font size
0
reset
guitar tuner
Autoscroll
slow
fast
+/-
esc
set tempo
stop
Help us to improve Ultimate-Guitar.com Take our survey!
×
Author
Difficulty
intermediate
-------------------------------------------------------------------------------
			     Psycho- by Carolina Spine
-------------------------------------------------------------------------------

Tabbed By : ALpizle
e-mail: alpizle@ yahoo.com

Tuning: EADG
    Intro                   Repeat this 3x
G|-------------------------------------------------------------------------|
D|-------------------------------------------------------------------------|
A|--------5--------5----5----5--------5-------------------------------------
E|-0000-0---0000-0---00---00---0000-0--------------------------------------|
    Chorus
G|-------------------------------------------------------------------------|
D|-------------------------------------------------------------------------|
A|-000-222-333-----000-222-333-555-----------------------------------------|
E|-------------333---------------------------------------------------------|
    Verse                       repeat 2x
G|-------------------------------------------------------------------------|
D|-------------------------------------------------------------------------|
A|-7777777777777777-55555555---------7777777777777777-55555555-33333333----|
E|--------------------------55555555---------------------------------------|
    chorus     Bend up on last note and mute then strum up and down once
G|------------------------------------------------------x-------------------
D|------------------------------------------------------x-------------------
A|-000-222-333-----000-222-333-----000-222-333-555------x-------------------
E|-------------333-------------333------------------3---x-------------------
   Intro                      play 2x
G|-------------------------------------------------------------------------|
D|-------------------------------------------------------------------------|
A|--------5--------5----5----5--------5------------------------------------|
E|-0000-0---0000-0---00---00---0000-0--------------------------------------|
   Verse                    play 2x
G|-------------------------------------------------------------------------|
D|-------------------------------------------------------------------------|
A|-7777777777777777-55555555----------7777777777777777-55555555-33333333---|
E|---------------------------55555555--------------------------------------|
   Chorus
G|------------------------------------------------------x-------------------
D|------------------------------------------------------x-------------------
A|-000-222-333-----000-222-333-----000-222-333-555------x------------------|
E|-------------333-------------333------------------3---x------------------|
   Intro                      play 2x
G|-------------------------------------------------------------------------|
D|-------------------------------------------------------------------------|
A|-------------------------------------------------------------------------|
E|-0000-03-0000-03-003-003-0000-03-----------------------------------------|
   Guitar solo           play 2x
G|-------------------------------------------------------------------------|
D|-------------------------------------------------------------------------|
A|-7777777777777777-55555555----------7777777777777777-55555555-33333333---|
E|---------------------------55555555--------------------------------------
   Chorus
G|-------------------------------------------------------------------------|
D|-------------------------------------------------------------------------|
A|-000-222-333-----000-222-333-555-----------------------------------------|
E|-------------333---------------------------------------------------------|
   Bass solo!                 play 5x
G|-------------------------------------------------------------------------|
D|-12-12-12-12-11-11-11-10-10-10-10-9-9-9----------------------------------|
A|-------------------------------------------------------------------------|
E|-------------------------------------------------------------------------|
   Bass solo cont.          
G|-------------------------------------------------------------------------|
D|-------------------------------------------------------------------------|
A|-10-10-10-10-9-9-9-8-8-8-8-7-7-7-----------------------------------------|
E|-------------------------------------------------------------------------
   Bass solo cont.                play 3x
g|-------------------------------------------------------------------------|
D|-------------------------------------------------------------------------|
A|-5-5-5-5-4-4-4-3-3-3-3-2-2-2---------------------------------------------|
E|-----------------------------3-3-3-3-2-2-2-1-1-1-1-0-0-0-----------------|
   Chorus           play ending part 3x after the first set
G|-------------------------------------------------------------------------|
D|-------------------------------------------------------------------------|
A|-000-222-333-----000-222-333-----000-222-333-555-------------------------|
E|-------------333-------------333-----------------------------------------|
  ending
G|-------------------------------------------------------------------------|
D|-------------------------------------------------------------------------|
A|-------------------------------------------------------------------------|
E|-0-x---------------------------------------------------------------------|
  Guitar solo 2         bass dosnt play anything for 8 beats
G|-------------------------------------------------------------------------|
D|-------------------------------------------------------------------------|
A|-------------------------------------------------------------------------|
E|-------------------------------------------------------------------------|
  ending
G|-------------------------------------------------------------------------|
D|-------------------------------------------------------------------------|
A|-------------------------------------------------------------------------|
E|-0------------------------------------------------------------------------

this is my first tab and i hope you enjoy!

| /  slide up
| \  slide down
| h  hammer-on
| p  pull-off
| ~  vibrato
| +  harmonic
| x  Mute note
===============================================================================
Suggest correction
Give kudos to tab author, rate the tab!
1 2 3 4 5
comments
print report bad tab
guest
You may want to rate the tab now too:
select rating
Please do not post tabs as comments. Select "correction" instead!