Oops, an error
Loading. Please wait.

Chelsea Smile - Let The Games Begin tab

784 views 6 this week
no commentswrite comment
1 2 3 4 5
1 last vote to show rating
add to favorites
×
Save as Personal and add changes to this tab that will be seen only by you. Learn more ›
×
You can save this tab as Personal to edit and correct it or add notes. All changes will be seen only by you. Learn more »
launch autoscroll
font size
0
reset
how to read this tab
guitar tuner
edit
Autoscroll
slow
fast
+/-
esc
set tempo
stop
Let the Games Begin - Chelsea Smile
Dropped C tuning
Didn't get a chance to try this tab so please post corrections under comments.
Not including palm mutes.

intro
-----------------------------------------------|
-----------------------------------------------|
--------------------------------------7h10-----|
--3p2------------------------------------------|
--------------3h7------8h12--------------------|
--------0-0-------0-0--------0-0----------0-0--|

--------------------------------------------|
--------------------------------------------|
--------------------------------------7h10--|
--3p2-------------------3p0-7p0-------------|
-------------3h7----------------------------|
--------0-0------0-0------------------------|
x6 i think


0:30
------------------------------------|----------------------------------|
------------------------------------|--------8h10p8--------------------|
------------------------------------|--------------------9-5/9-10-5/9--| you can hear this
---7654--6543------000--00|-0000---------------------------------------|   in the background
---7654--6543------000--00|-0000---------------------------------------| not sure if its right :S
---7654--6543------000--00|-0000---------------------------------------|
                        just open strings muted with chromatic chords repeated
 1:05
-------|----------------------------------------------------------------------------------|
-------|----------------------------------------------------------------------------------|
-------|----------------------------------------------------------------------------------|
-3~--7~|-------5---7-----------5----3------2h3-----0~-----5----7--------7-5-3--5-3--------|
-3~--7~|----------------5--------------------------0~----------------5----------7----7-5--|
-3~--7~|--0-0----0---0----0-----0-----0----------0-0~-0----0-----0------------------------|
PM the 0's

---------------------------------------------------------------------------------------------|
---------------------------------------------------------------------------8h10p8/5-5h8p5/3--|
---------------------------------------------------------------------------------------------|
--5-----5-----7-----------5-----------------7---------------7--------------------------------|
--5------------------5------------8---7h8---7------10-------------8--------------------------|
--5--5-----5----5----5------5---------------7--7------7-------7------------------------------|

1:27
-------------------------------------------------------------------------------------|-  last -|
-------------------------------------------------------------------------------------|- time---|
-------------------------------------------------------------------------------------|-10/14---|
-------------------------------------------------------------------------------------|--x-x----|
-----------7h8p7---------------8h10p8------------------888777101010------------------|-8/12----|
--0-000-----------10-0-000--------------12-0-000-------888777101010----------------------|-----|

1:47
----------------------------------------------------------------------------|
----------------------------------------------------------------------------|
----------------------------------------------------------------------------|
--0-0-00--000---3--7-----------  listen to song for timing of open strings--|
--0-0-00--000---3--7--------------------------------------------------------|
--0-0-00--000---3--7--------------------------------------------------------|

2:18
------------------------------------------------------------------------------------|
------------------------------------------------------------------------------------|
------------------------------------------------------------------------------------|
-0-------------------7h10----------------0----------------------7h10----------------|
-0----5--5h8---------------------8h12----0----5-5h8---------------------------8h12--|
-0--0--0------0-0----------0-0-----------0--0--0---0--------0-0---------0-0---------|

--------------------------------------------------------------------------------------------|
--------------------------------------------------------------------------------------------|
-------------------------------10h14-------9h12------------------------------10h14----9h12--|
-------12-----12h15-------------------------------------12---12h15--------------------------|
-0--0----0-------------0-0------------0-0--------0-0-0-----0-----------0-0----------0-0-----|
--------------------------------------------------------------------------------------------|
x2

2:37
--------------------------------------------------------------------------------|
--------------------------------------------------------------------------------|
--------------------------------------------------------------------------------|
--------------------------------------------------------------------------------|
-5---5----5----5h7p5--x2--------5---5---5---5h7p5-x2----5---5---5---5h7p5---x2--|
---0----0----0--------------5-5---5---5---5----------8-8--8---8---8-------------|

------------------------------------------------------------|
-------------------------------------8h10p8p6---6h8p6-------|
---------------------------------------------------------7--|
------------------------------------------------------------|
-----5--5---5---5h7p5----x2---------------------------------|
-3-3--3---3---3---------------------------------------------|

then, second time around
--6h8p6-5-5h6p5----------------------------------|
------------------------8--6h8p6--5--5h6p5-------|
----------------------------------------------7--|
-------------------------------------------------|
-------------------------------------------------|
-------------------------------------------------|

Chorus 2:57
----------------------------------------------------------------------------------|
----------------------------------------------------------------------------------|
-------10101010-------10101010--9-9-9-9-------------------------------------------|
--------x-x-x-x--------x-x-x-x--x-x-x-x----8----8--------------8---------------8--|
--------8-8-8-8-------8-8-8-8---7-7-7-7----8-------12p8----------12p8-------------|
-0-0--0-0-0-0-0-0-0-0-0-0------------------8-8-------------8-8-------------8-8----|

--------------------------------------------------------|
-------------------10-----------------------------------|
------------7-------------7-----------------------------|
------7--------------------------7-------------------0--|
-------------------------------------------12p8------0--|
--7-7---7------7-----7------7------7-----------------0--|

3:20
---------|-------------------------------------------------------------------|
---------|-------------------------------------------------------------------|
---------|-------------------------------------------------------------------|
-------5---7---------5----3------2h3-----0~-----5----7--------7-5-3--5-3-----|
----------------5------------------------0~----------------5-------7----7-5--|
--0-0----0---0----0-----0-----0----------0-0~-0----0-----0-------------------|
PM the 0's

---------------------------------------------------------------------------------------------|
---------------------------------------------------------------------------8h10p8/5-5h8p5/3--|
---------------------------------------------------------------------------------------------|
--5-----5-----7-----------5-----------------7---------------7--------------------------------|
--5------------------5------------8---7h8---7------10-------------8--------------------------|
--5--5-----5----5----5------5---------------7--7------7-------7------------------------------|

3:40
-------------------------------------------------------------------------------------|-  last -|
-------------------------------------------------------------------------------------|- time---|
-------------------------------------------------------------------------------------|-10/14---|
-----------------------------------------------------------------------------------------------|
-----------7h8p7---------------8h10p8------------------------------8-7-12-8--------------------|
--0-000-----------10-0-000--------------12-0-000---8-7-10-8------------------------------------|


--------------------------------------------------------------------|
--------------------------------------------------------------------|
-----------------------------------7h10-----------------------------|
--3p2---------------------------------------------------------------|
--------------3h7------8h12-----------------------7-6-5-4--6-5-4-3--|
--------0-0-------0-0--------0-0----------0-0-----7-6-5-4--6-5-4-3--|

4:07
---------------------------------------------------------------------------------|
---------------------------------------------------------------------------------|
---------------------------------------------------------------------------------|
-0-------------------7h10----------------0----------------------7h10-------------|
-0----5--5h8---------------------8h12----0----5----5h8---------------------8h12--|
-0--0--0------0-0----------0-0-----------0--0--0---0--------0-0---------0-0------|

--------------------------------------------------------------------------------------------|
--------------------------------------------------------------------------------------------|
-------------------------------10h14-------9h12------------------------------10h14----9h12--|
-------12-----12h15-------------------------------------12---12h15--------------------------|
-0--0----0-------------0-0------------0-0--------0-0-0-----0-----------0-0----------0-0-----|
--------------------------------------------------------------------------------------------|
x2
------------------------------------------------------------------------------------|
------------------------------------------------------------------------------------|
------------------------------------------------------------------------------------|
------------------------------------------------------------------------------------|
-5---5----5----5h7p5--x2------------5---5---5---5h7p5-x2---------5---5---5---5h7p5--|x2
---0----0----0------------------5-5---5---5---5--------------8-8--8---8---8---------|

---------------------------------------------------------------|
-------------------------------------8h10p8p6---6h8p6----------|
------------------------------------------------------------7--|
---------------------------------------------------------------|
------5--5---5---5h7p5----x2-----------------------------------|
-3-3--3---3---3------------------------------------------------|

then, second time around
--6h8p6-5-5h6p5-----------------------------------------|
------------------------8--6h8p6--5--5h6p5--------------|
-----------------------------------------------------7--|
--------------------------------------------------------|
--------------------------------------------------------|
--------------------------------------------------------|
CHORUS
Then,
6:07
------------------------------------------------------------------------------|
------------------------------------------------------------------------------|
-------------------------------------------------------------------14-14-14---|
------8---------------8------------------------------8-------------x---x---x--|
---------12p8----------12p8--------12p8---------12p8---------------12-12-12---|
-8-8-----------8-8--------------8-8---------8-8-------------------------------|
x2
-------------------------------------------------------------------------------------|
-------------------------------------------------------------------------------------|
--------------------------------------------------------------------------12-12-12---|
-------8---------------8---------------------------------8--------------x----x---x---|
---------10h12---------10h12-------10h12-----------10h12-------------------10-10-10--|
-8-8-------------8-8--------------8-8------------8-8---------------------------------|
x2

------------------------------|
------------------------------|
-12-12-109-9--7-7-9-9--7-6-6--|
-x---x--x-x--x-x-x--x--x-x-x--|
-10-10-8-7-7--5-5/7-7--5-4-4--|
------------------------------|

Outtro 5:34
---------------------------------------------------------|
---------------------------------------------------------|
---------------------------------------------------------| x2
-0-0-0-0---0-0-0----0-0---0-0-0-0--0-0-0--0-1-1-1-2-2-2--|
-0-0-0-0---0-0-0----0-0---0-0-0-0--0-0-0--0-1-1-1-2-2-2--|
-0-0-0-0---0-0-0----0-0---0-0-0-0--0-0-0--0-1-1-1-2-2-2--|
PM ^
---------------------------------------------------------|
---------------------------------------------------------|
---------------------------------------------------------|
-1-1-1-1---1-1-1----1-1---1-1-1-1--1-1-1--1-1-1-1-2-2-2--|
-0-0-0-0---0-0-0----0-0---0-0-0-0--0-0-0--0-1-1-1-2-2-2--|
-0-0-0-0---0-0-0----0-0---0-0-0-0--0-0-0--0-1-1-1-2-2-2--|

---------------------------------------------------------|
---------------------------------------------------------|
---------------------------------------------------------|
-0-0-0-0---0-0-0----0-0---0-0-0-0--0-0-0--0-1-1-1-2-2-2--|
-0-0-0-0---0-0-0----0-0---0-0-0-0--0-0-0--0-1-1-1-2-2-2--|
-0-0-0-0---0-0-0----0-0---0-0-0-0--0-0-0--0-1-1-1-2-2-2--|

---------------------------------------------|
---------------------------------------------|
---------------------------------------------|
--------------0~--------------------------0--|
--00-0-00-0---0~------7-6-5-4--6-5-4-3----0--|
--00-0-00-0---0~------7-6-5-4--6-5-4-3----0--|

There are a few typos but try to ignore them.. its not easy tabbing out a 6 min song -_-"
Please rate :D
Suggest correction
Creating personal tab
Creating personal tab
You can edit any tab online and save it as your Personal.

You can edit, replace or remove any tab part or add personal notes – all changes will be seen only by you.

Personal tabs can be accessed anytime from any device, even offline.
Learn more »
Give kudos to tab author, rate the tab!
1 2 3 4 5
comments
print report bad tab
guest
You may want to rate the tab now too:
select rating
Wanna post a correction for this tab? Suggest correction