Oops, an error
Loading. Please wait.

Chris Warren Band - Break It Down Bass Tab

1,382 views 1 this week
no commentswrite comment
1 2 3 4 5
3 more votes to show rating
add to favorites
launch autoscroll
font size
0
reset
guitar tuner
Autoscroll
slow
fast
+/-
esc
set tempo
stop
Help us to improve Ultimate-Guitar.com Take our survey!
×
Author
Difficulty
intermediate
----------------------------------------------------------------------------
Break It Down (Degeneration X Theme Song)-DX Band (aka The Chris Warren Band)
----------------------------------------------------------------------------

I see that ppl have this tabbed under Rage Against The Machine but
it's not. It was actually sung by Chris Warren. The band was actually
called the DX band a.k.a. The Chris Warren Band. You can read about it
here: http://en.wikipedia.org/wiki/Chris_Warren_(musician)
 
Tabbed By :Harley Fay 
e-mail:wefay@charter.net

Tuning:1/2 Step Down

G|-------------------------------------------------------------------------|
D|-------------------------------------------------------------------------|
A|---------5----55-7777-----5----223322-----5----55-7777-----5----223322---|
E|-12/-000---00---------000---00--------000---00---------000---00----------|

G|-------------------------------------------------------------------------|
D|-------------------------------------------------------------------------|
A|-----5----55-7777-----5----223322----------------------------------------|
E|-000---00---------000---00-----------------------------------------------|

G|-------------------------------------------------------------------------|
D|-------------------------------------------------------------------------|
A|---7p57-2-3-------7p57-3-2-----7p57-2-3-------7p57-3-2-------------------|
E|-0----------2-3-0----------3/0----------2-3------------3/-00-00-00-00----|

G|-------------------------------------------------------------------------|
D|-------------------------------------------------------------------------|
A|---------5----55-7777-----5----223322-----5----55-7777-----5----223322---|
E|-12/-000---00---------000---00--------000---00---------000---00----------|

G|-------------------------------------------------------------------------|
D|-------------------------------------------------------------------------|
A|---7p57-2-3-------7p57-3-2-----7p57-2-3-------7p57-3-2-------------------|
E|-0----------2-3-0----------3/0----------2-3------------3/-00-00-00-00----|

G|-------------------------------------------------------------------------|
D|-------------------------------------------------------------------------|
A|---------5----55-7777-----5----223322-----5----55-7777-----5----223322---|
E|-12/-000---00---------000---00--------000---00---------000---00----------|

G|-------------------------------------------------------------------------|
D|-------------------------------------------------------------------------|
A|-----5----55-7777-----5----223322----------------------------------------|
E|-000---00---------000---00-----------------------------------------------|

G|-------------------------------------------------------------------------|
D|-------------------------------------------------------------------------|
A|---7p57-2-3-------7p57-3-2-----7p57-2-3-------7p57-3-2-------------------|
E|-0----------2-3-0----------3/0----------2-3------------3/-00-00-00-00----|

G|-------------------------------------------------------------------------|
D|-------------------------------------------------------------------------|
A|---------5----55-7777-----5----223322-----5----55-7777-----5----223322---|
E|-12/-000---00---------000---00--------000---00---------000---00----------|

G|-------------------------------------------------------------------------|
D|-------------------------------------------------------------------------|
A|---7p57-2-3-------7p57-3-2-----7p57-2-3-------7p57-3-2-------------------|
E|-0----------2-3-0----------3/0----------2-3------------3/-00-00-00-00----|
Suggest correction
Give kudos to tab author, rate the tab!
1 2 3 4 5
comments
print report bad tab
guest
You may want to rate the tab now too:
select rating
Wanna post a correction for this tab? Suggest correction