Oops, an error
Loading. Please wait.

Complete - Hoogie Boogie Land Bass Tab

1,349 views 1 this week
1 commentread comment
1 2 3 4 5
excellent!
x 4
add to favorites
launch autoscroll
font size
0
reset
guitar tuner
Tab Pro tools
  • play this tab
  • loop segment
  • change instrument
  • show fretboard
  • metronome
×
Best way to learn
"Complete - Hoogie Boogie Land"
Autoscroll
slow
fast
+/-
esc
set tempo
stop
Contributor
Difficulty
novice
Artist: Complete
Song: Hoogie Boogie Land
Tabbed by: Gross

Around 120 BPM

Main Bassline throughout the song:
G[----------------]
D[----------------]
A[-12-12p10-------]
E[----------12-12-]


Then switch it up every now and then with this for good measure:
G[----------------]
D[----------------]
A[-10-10p8--------]
E[----------10-10-]


Finsish off with this and repeat all over for 4 and a half minutes:
G[------------------]
D[------------------]
A[-9-9-11-11-12-12+-]
E[------------------]


(+) Let Ring


This is pretty much the entire song, watch the video for the timing here:
http://youtube.com/watch?v=ukjnrXTTvPY
Feel free to fix any mistakes or add to it. It was EXTREMELY hard to concentrate on 
out the song without laughing uncontrollably, so give me a break.
comments
print report bad tab
1 comment total.
0 reply
Death2Preps wrote on September 2 2007, 10:40 pm

Dude, this is a pretty good tab but I think the main riff goes more like this:

G|-------------------------------------------------------------------
D|-------------------------------------------------------------------
A|-12-10-12-------------------------------------------------------------
E|----------12-12-------------------------------------------------------

I want to post or [tab]
guest
You may want to rate the tab now too:
select rating
Please do not post tabs as comments. Select "correction" instead!