Oops, an error
Loading. Please wait.

Cootie Catcher - Blink Tab

74 views 1 this week
no commentswrite comment
1 2 3 4 5
please rate
add to favorites
launch autoscroll
font size
0
reset
how to read this tab
guitar tuner
Autoscroll
slow
fast
+/-
esc
set tempo
stop
Help us to improve Ultimate-Guitar.com Take our survey!
×
Author
Tuning
D A D G B E
Hey, this is Brad from Cootie Catcher. I've been getting a lot of requests on YouTube
from people wanting guitar tabs to my song called "Blink." If you haven't heard it, it's a
song that I wrote where the lyrics consist of about 40 Blink-182 song titles. You can 
listen to it here: http://www.youtube.com/watch?v=MC6pqTr75GU

I don't have much time so this won't be the most thorough tab ever, especially since I'm
going to be doing it all by memory as I don't currently have a guitar by me. I will
write out the main chords, and then you can figure out the strumming.

TUNING:
Drop D (DADGBE)

Intro:
E|--------------------------------------------|
B|--------------------------------------------|
G|-------8---------------------8--------------|
D|-1-1---x---8-8--(x2)---6-6---x---8-8--(x2)--|
A|-1-1---6---8-8---------6-6---6---8-8--------|
D|-1-1-------8-8---------6-6-------8-8--------|

VERSE 1:
E|--------------------------------------------|
B|--------------------------------------------|
G|-8-----------------------8------------------|
D|-8-----------------------8------------------|
A|-6-----------------------6------------------|
D|-------------------------6------------------|
     It was just after...    You called me...
     Now I'm fighting...     I already miss....

BRIDGE 1:
E|--------------------------------------------|
B|--------------------------------------------|
G|-12-----------10----------------8-----------|
D|-10-----------8-----------------6-----------|
A|-10-----------8-----------------6-----------|
D|-10-----------8-----------------6-----------|
     I've got a feeling this will always keep me down
     But        here's your       letter...

CHORUS:
E|--------------------------------------------|
B|--------------------------------------------|
G|-8----------------8----------8----------8---|
D|-8----------------8----------5----------8---|
A|-6----------------8----------6----------6---|
D|------------------8----------5----------6---|
    Josie don't...   I miss...  Am up...   Night...
    Wasting time...  Sung an... I'm sorry  Man overboard

LEAD UP TO BRIDGE 2:
E|---|
B|---|
G|---|
D|-1-| (x4)
A|-1-|
D|-1-|

BRIDGE 2:
E|--------------------------------------------------------------|
B|--------------------------------------------------------------|
G|-8--8----------8--8----------8--8--------12----------8--------|
D|-8--x----------6--x----------8--x--------10----------6--------|
A|-8--6----------6--6----------8--6--------10----------6--------|
D|-8-------------6-------------8-----------10----------6--------|
     Remember...   At the rock  I asked...   You said   Told you...
     What went...  Please don't It's obvious Love is    Dangerous
Suggest correction
What's this?
You can suggest a correction to this tab. Community and Mods will review your correction and vote to approve or reject it.
comments
We did not receive enough feedback on this tab! Please rate:
print report bad tab
1 2 3 4 5
guest
You may want to rate the tab now too:
select rating
Please do not post tabs as comments. Select "correction" instead!