Oops, an error
Loading. Please wait.

Cordilleros - Pretentious Pretence Bass Tab

7 views 1 this week
no commentswrite comment
1 2 3 4 5
3 more votes to show rating
add to favorites
launch autoscroll
font size
0
reset
guitar tuner
Autoscroll
slow
fast
+/-
esc
set tempo
stop
Help us to improve Ultimate-Guitar.com Take our survey!
×
Author
Pretentious Pretence [Possibly]

[Verse]

G|---------------------------------------------------------------------------|
D|---------------------------------------------------------------------------|
A|--------9-9----7-----------------------------------------------------------|
E|7-7---7-----10---10--------------------------------------------------------|

[Chorus]

G|---------------------------------------------------------------------------|
D|----------------9-7---7----------------------------------------------------|
A|---------9-9--------9-----7-7---7-5-5---4-5-4------------------------------|
E|7-7-777------10------------------------------------------------------------| x3

G|---------------------------------------------------------------------------|
D|----------------9-7---7-9-9-999-11-11-9-11-12------------------------------|
A|---------9-9--------9------------------------------------------------------|
E|7-7-777------10------------------------------------------------------------| x1

[Bridge]

G|---------------------------------------------------------------------------|
D|------------4------------------------------4-4-----------------------------|
A|--5---7-5-------5----7--5-7-5----5---7-5-------5-7-5-----------------------|
E|7---7-----7--------7-----------7---7-----7---------------------------------|

G|---------------------------------------------------------------------------|
D|------------4----------------------------4-4-----7-------------------------|
A|--5---7-5-------5----7--5-7-5----5---7-5-----5-7---------------------------|
E|7---7-----7--------7-----------7---7---------------------------------------|

[Next Bit, I've run out of section names at this point]

G|---------------------------------------------------------------------------|
D|---------------------------------------------------------------------------|
A|2-2---0-2-2---0-2-2---0-2-2---0-5-5---4-5-5---5-7-7---5-7-7----------------|
E|---------------------------------------------------------------------------|

G|---------------------------------------------------------------------------|
D|---------------------------------------------------------------------------|
A|7-2-2---0-2-2---0-2-2---0-2-2---0-5-5---4-5-4-5-7-7------------------------|
E|---------------------------------------------------------------------------|

[The Next Next Bit]

G|---------------------------------------------------------------------------|
D|0-----------0--------------------------------------------------------------|
A|--2-0-2-222---2-0-2-222---5-5-4-5-555---7-7-5-7-777------------------------|
E|---------------------------------------------------------------------------| x3

G|---------------------------------------------------------------------------|
D|0-----------0------------------------------5-4-7-5-------------------------|
A|--2-0-2-222---2-0-2-222---5-5-4-5--5-4-7-7---------------------------------|
E|---------------------------------------------------------------------------| x1
  
[Final 4 Bars]

G|---------------------------------------------------------------------------|
D|0-----------0------------------------------5-4-----------------------------|
A|--2-0-2-222---2-0-2-222---5-5-4-5--5-4-7-7------7--2-----------------------|
E|---------------------------------------------------------------------------|
Suggest correction
Give kudos to tab author, rate the tab!
1 2 3 4 5
comments
print report bad tab
guest
You may want to rate the tab now too:
select rating
Wanna post a correction for this tab? Suggest correction