Oops, an error
Loading. Please wait.

Corridor Digital - Freak Guitar Accident tab

4,101 views 15 this week
no commentswrite comment
1 2 3 4 5
x 8
add to favorites
×
Save as Personal and add changes to this tab that will be seen only by you. Learn more ›
×
You can save this tab as Personal to edit and correct it or add notes. All changes will be seen only by you. Learn more »
launch autoscroll
font size
0
reset
how to read this tab
guitar tuner
edit
Autoscroll
slow
fast
+/-
esc
set tempo
stop
Author
Difficulty
intermediate
So, Corridor Digital (Also known as Sam and Niko) released the tabs on Twitter and the
YouTube video description. In case you're too blind to read it...



Freak Guitar Accident

Written By Sam Gorski


G1:
D |-2-2---2-2-2---2-|
A |-2-2---2-2-2---2-|
E |-0-0---0-0-0---0-|

G2:
D |-9-9---9-9-9---9-9-9---9-9-9----9----|
A |-7-7---7-7-7---7-6-6---6-6-6----6----|
E |-------------------------------------|


Niko's Chord Intro:
12-12---12-12-12---12-11-11---11-11-11---11-11-11---11-11-11---11-10-10---10-10-10---10-|
9--9----9--9--9----9--9--9----9--9--9----9--9--9----9--9--9----9--9--9----9--9--9----9--|
10-10---10-10-10---10-9--9----9--9--9----9--9--9----9--9--9----9--8--8----8--8--8----8--|
0--0----0--0--0----0--10-10---10-10-10---10-9--9----9--9--9----9--9--9----9--9--9----9--|

12-12---12-12-12---12-11-11---11-11-11---11----------------------4------|
9--9----9--9--9----9--9--9----9--9--9----9--4>>>>>>>>>11>>>>>>>>>4------|
10-10---10-10-10---10-9--9----9--9--9----9------------->>>>>>>>>-2------|
0--0----0--0--0----0--10-10---10-10-10---10-2>>>>>>>>>9>>>>>>>>>>-------|


Main Melody:

---------------------------------------------------------------------------|
---------------------------------------------------------------------------|
------11-12-9-11--9--------------------------------------------------------|
----9-----------13--9-138-9---9--------------9-10-13-9-10--9---------------|
--10------------------------12--10-12-9-10-12---------------12-10-12-10-12-|
0--------------------------------------------------------------------------|

---------------------------------------------------------------------------|
---------------------------------------------------------------------------|
------11-12-9-11--9--------------------------------------------------------|
----9-----------13--9-138-9---9--------------9-10-13-9-10--9---------------|
--9-------------------------12--10-12-9-10-12---------------12-10-12-10-12-|
10-------------------------------------------------------------------------|

------------------------------------------------------------------|
--------12--------------------------------------------------------|
------11--11-14-9-11--9-----119---119---9-7---7-6---6-------------|
----9---------------12--9-12----9-----9-----9-----9---9-7-9-7-----|
--9-----------------------------------------------------------9-7-|
10----------------------------------------------------------------|

---------------------------------------------------------------------------|
--------9-12-10-9---10-9------9--------------------------------------------|
------10----------11-----11-10--11-10-11-10--10----------------------------|
----9--------------------------------------11--11-9-11-9---9---------------|
--8------------------------------------------------------11--11-9-11-9-8---|
9------------------------------------------------------------------------9-|
Suggest correction
Creating personal tab
Creating personal tab
You can edit any tab online and save it as your Personal.

You can edit, replace or remove any tab part or add personal notes – all changes will be seen only by you.

Personal tabs can be accessed anytime from any device, even offline.
Learn more »
comments
print report bad tab
guest
You may want to rate the tab now too:
select rating
Wanna post a correction for this tab? Suggest correction