Oops, an error
Loading. Please wait.

Corrupt - Scream bass

46 views 1 this week
no commentswrite comment
1 2 3 4 5
3 more votes to show rating
add to favorites
×
Save as Personal and add changes to this tab that will be seen only by you. Learn more ›
×
You can save this tab as Personal to edit and correct it or add notes. All changes will be seen only by you. Learn more »
launch autoscroll
font size
0
reset
guitar tuner
edit
Autoscroll
slow
fast
+/-
esc
set tempo
stop
Scream bliver spillet i drop D. alle vers delene skal palm mutes. dvs. du skal holde det 
af din ventre håndflade lidt over strengene.
efter guitar riffet er blevet spillet to gange begynder bassen.

vers:
g-------------------------------|-------------------------|
d-------------------------------|-------------------------|
a-------------------------------|-------------------------|
E-0-0-0-0-0-0-0-3-3-3-3-5-5-5-5-|-0-0-0-0-0-0-0-3-3-3-3-5-|

omkvæd:
g-----------------------------------|---------------------------------|
d-----------------------------------|---------------------------------|
a-5-5-0-5-5-5-5-5-8-8-8-10-10-10-10-|5-5-0-5-5-5-5-5-8-8-8-3-3-3-3----| X2
E-----------------------------------|---------------------------------|

vers:
g-------------------------------|-------------------------|
d-------------------------------|-------------------------|
a-------------------------------|-------------------------|
E-0-0-0-0-0-0-0-3-3-3-3-5-5-5-5-|-0-0-0-0-0-0-0-3-3-3-3-5-|


omkvæd:
g-----------------------------------|---------------------------------|
d-----------------------------------|---------------------------------|
a-5-5-0-5-5-5-5-5-8-8-8-10-10-10-10-|5-5-0-5-5-5-5-5-8-8-8-3-3-3-3----| X2
E-----------------------------------|---------------------------------|


solo del: rytmen spilles anderledes end i omkvædet.
g-------------------------------|
d-------------------------------|
a-5-5-5-5-5-8-8-8-8-10-10-10-10-|X3
E-------------------------------|

solo del: skal spilles videre fra delen der står ovenfor. / = slide
g--------------------------------------------------|-------------|
d--------------------------------------------------|-------------|
a-10-10-10-8-8-5-5-5--8-8-5-5-5-8-8-5-5-5-8-8-5-5-5|-3-3-3-3-3/5-|
E--------------------------------------------------|-------------|

vers:
g-------------------------------|-------------------------|
d-------------------------------|-------------------------|
a-------------------------------|-------------------------|
E-0-0-0-0-0-0-0-3-3-3-3-5-5-5-5-|-0-0-0-0-0-0-0-3-3-3-3-5-|


omkvæd:
g-----------------------------------|---------------------------------|
d-----------------------------------|---------------------------------|
a-5-5-0-5-5-5-5-5-8-8-8-10-10-10-10-|5-5-0-5-5-5-5-5-8-8-8-3-3-3-3----| X2
E-----------------------------------|---------------------------------|

slutning: der bliver spillet med wah, men bassen og rytme guitaren bliver bare spillet i 
slag som trommerne.
g--------------------------|------------------------|
d--------------------------|------------------------|
a-5--5--5--5--8--8--10--10-|-5--5--5--5--8--8--3--3-|X2
E--------------------------|------------------------|

g---------------------------------------|
d---------------------------------------|
a-5--5--3--3--5--5--3--3--3--3--3--3--0~|
E---------------------------------------|

            
            
Suggest correction
Creating personal tab
Creating personal tab
You can edit any tab online and save it as your Personal.

You can edit, replace or remove any tab part or add personal notes – all changes will be seen only by you.

Personal tabs can be accessed anytime from any device, even offline.
Learn more »
Give kudos to tab author, rate the tab!
1 2 3 4 5
comments
print report bad tab
guest
You may want to rate the tab now too:
select rating
Wanna post a correction for this tab? Suggest correction