Oops, an error
Loading. Please wait.

Crayon Notebook - Open House tab

26 views 1 this week
no commentswrite comment
1 2 3 4 5
2 more votes to show rating
add to favorites
×
Save as Personal and add changes to this tab that will be seen only by you. Learn more ›
×
You can save this tab as Personal to edit and correct it or add notes. All changes will be seen only by you. Learn more »
launch autoscroll
font size
0
reset
how to read this tab
guitar tuner
edit
Autoscroll
slow
fast
+/-
esc
set tempo
stop
[Intro]

Tempo: 96 Key: B major
C#|-----|------|-----|------|-----|------|-----|------|--------|---------|---------|--------|
G#|-----|------|-----|------|-----|------|-----|------|--------|---------|---------|--------|
E |-----|------|-----|------|-----|------|-----|------|--------|---------|---------|--------|
B |-6-2-|-11-9-|-6-2-|-11-9-|-6-2-|-11-9-|-6-2-|-11-9-|------6-|-------2-|------11-|------9-|
F#|-4-2-|-7--9-|-4-2-|-7--9-|-4-2-|-7--9-|-4-2-|-7--9-|----4---|-----2---|----7----|----9---|
B |-4-2-|-7--9-|-4-2-|-7--9-|-4-2-|-7--9-|-4-2-|-7--9-|-0-4----|-0-2-----|-0-7-----|-0-9----|
    H H   H  H   H H   H  H   H H   H  H   H H   H  H  E E E E   E E E E  E E E E   E E E E

C#|---------------------------------------------------------------------------|
G#|---------------------------------------------------------------------------|
E |---------------------------------------------------------------------------|
B |-------6-------2-------11-------9-------6-------2-------11-------9---------|
F#|-----4-------2-------7--------9-------4-------2-------7--------9-----------|
B |-0-4-----0-2-----0-7------0-9-----0-4-----0-2-----0-7------0-9-------------|
    E E E E E E E E E E E E  E E E E E E E E E E E E E E E E  E E E E


[Verse]

Figure a
C#|---------------------------------------------------------------------------|
G#|---------------------------------------------------------------------------|
E |---------------------------------------------------------------------------|
B |-------6-----------2-----------11-----------9------------------------------|
F#|-----4---4-------2---2-------7----7-------9---9----------------------------|
B |-0-4-------4-0-2-------2-0-7--------7-0-9-------9--------------------------| X15
    E S S S S S E S E E E E E S S S  S S E S E E E E 


[Chorus]

Figure b
C#|---------------------------------------------------------------------------|
G#|---------------------------------------------------------------------------|
E |---------------------------------------------------------------------------|
B |-7-7-7-7-7-2-2-2-2-2-9-9-9-9-9-4-4-4-4-4-----------------------------------|
F#|-7-7-7-7-7-2-2-2-2-2-9-9-9-9-9-4-4-4-4-4-----------------------------------|
B |-7-7-7-7-7-2-2-2-2-2-9-9-9-9-9-4-4-4-4-4-----------------------------------| X9
    Q S S S S Q S S S S Q S S S S Q S S S S

C#|---------------------------------------------------------------------------|
G#|---------------------------------------------------------------------------|
E |---------------------------------------------------------------------------|
B |-5-5-5-5-5-5-5-5-5-5-7-0---------------------------------------------------|
F#|-5-5-5-5-5-5-5-5-5-5-7-0---------------------------------------------------|
B |-5-5-5-5-5-5-5-5-5-5-7-0---------------------------------------------------|
    Q S S S S Q S S S S E H..


[Verse]

Figure a
C#|---------------------------------------------------------------------------|
G#|---------------------------------------------------------------------------|
E |---------------------------------------------------------------------------|
B |-------6-----------2-----------11-----------9------------------------------|
F#|-----4---4-------2---2-------7----7-------9---9----------------------------|
B |-0-4-------4-0-2-------2-0-7--------7-0-9-------9--------------------------| X15
    E S S S S S E S E E E E E S S S  S S E S E E E E 


[Chorus]

Figure b
C#|---------------------------------------------------------------------------|
G#|---------------------------------------------------------------------------|
E |---------------------------------------------------------------------------|
B |-7-7-7-7-7-2-2-2-2-2-9-9-9-9-9-4-4-4-4-4-----------------------------------|
F#|-7-7-7-7-7-2-2-2-2-2-9-9-9-9-9-4-4-4-4-4-----------------------------------|
B |-7-7-7-7-7-2-2-2-2-2-9-9-9-9-9-4-4-4-4-4-----------------------------------| X9
    Q S S S S Q S S S S Q S S S S Q S S S S

C#|---------------------------------------------------------------------------|
G#|---------------------------------------------------------------------------|
E |---------------------------------------------------------------------------|
B |-5-5-5-5-5-5-5-5-5-5-7-0---------------------------------------------------|
F#|-5-5-5-5-5-5-5-5-5-5-7-0---------------------------------------------------|
B |-5-5-5-5-5-5-5-5-5-5-7-0---------------------------------------------------|
    Q S S S S Q S S S S E H..


[Bridge]

C#|---------------------------------------------------------------------------|
G#|---------------------------------------------------------------------------|
E |---------------------------------------------------------------------------|
B |-6-6-6-6-6-2-2-2-2-2-11-11-11-11-11-9-9-9-9-9------------------------------|
F#|-4-4-4-4-4-2-2-2-2-2-7--7--7--7--7--9-9-9-9-9------------------------------|
B |-4-4-4-4-4-2-2-2-2-2-7--7--7--7--7--9-9-9-9-9------------------------------| x2
    Q S S S S Q S S S S Q  S  S  S  S  Q S S S S

Tempo change: 120 Key change: C# minor
Figure c
C#|---------------------------------------------------------------------------|
G#|---------------------------------------------------------------------------|
E |---------------------------------------------------------------------------|
B |---------------------------------------------------------------------------|
F#|---------2---------2---------2---------5---------5---------5---------------|
B |-2-2-2-2-2-2-2-2-2-2-2-2-2-2-2-5-5-5-5-5-5-5-5-5-5-5-5-5-5-5---------------|
    E E E E Q E E E E Q E E E E Q E E E E Q E E E E Q E E E E Q

C#|---------------------------------------------------------------------------|
G#|---------------------------------------------------------------------------|
E |---------------------------------------------------------------------------|
B |---------------------------------------------------------------------------|
F#|---------2---------2---------2---------7---------5---------2---------------|
B |-2-2-2-2-2-2-2-2-2-2-2-2-2-2-2-7-7-7-7-7-5-5-5-5-5-2-2-2-2-2---------------|
    E E E E Q E E E E Q E E E E Q E E E E Q E E E E Q E E E E Q

--Rythem Guitar-- *Mason write yo solo*
C#|---------------------------------------------------------------------------|
G#|---------------------------------------------------------------------------|
E |---------------------------------------------------------------------------|
B |---------------------------------------------------------------------------|
F#|---------2---------2---------2---------5---------5---------5---------------|
B |-2-2-2-2-2-2-2-2-2-2-2-2-2-2-2-5-5-5-5-5-5-5-5-5-5-5-5-5-5-5---------------|
    E E E E Q E E E E Q E E E E Q E E E E Q E E E E Q E E E E Q

C#|---------------------------------------------------------------------------|
G#|---------------------------------------------------------------------------|
E |---------------------------------------------------------------------------|
B |---------------------------------------------------------------------------|
F#|---------2---------2---------2---------7---------5---------2---------------|
B |-2-2-2-2-2-2-2-2-2-2-2-2-2-2-2-7-7-7-7-7-5-5-5-5-5-2-2-2-2-2---------------|
    E E E E Q E E E E Q E E E E Q E E E E Q E E E E Q E E E E Q

C#|---------------------------------------------------------------------------|
G#|---------------------------------------------------------------------------|
E |---------------------------------------------------------------------------|
B |---------------------------------------------------------------------------|
F#|---------2---------2---------2---------5---------5---------5---------------|
B |-2-2-2-2-2-2-2-2-2-2-2-2-2-2-2-5-5-5-5-5-5-5-5-5-5-5-5-5-5-5---------------|
    E E E E Q E E E E Q E E E E Q E E E E Q E E E E Q E E E E Q

C#|---------------------------------------------------------------------------|
G#|---------------------------------------------------------------------------|
E |---------------------------------------------------------------------------|
B |---------------------------------------------------------------------------|
F#|---------2---------2---------2---------7---------5---------2---------------|
B |-2-2-2-2-2-2-2-2-2-2-2-2-2-2-2-7-7-7-7-7-5-5-5-5-5-2-2-2-2-2---------------|
    E E E E Q E E E E Q E E E E Q E E E E Q E E E E Q E E E E Q


[Outro]

Figure b
C#|---------------------------------------------------------------------------|
G#|---------------------------------------------------------------------------|
E |---------------------------------------------------------------------------|
B |-7-7-7-7-7-2-2-2-2-2-9-9-9-9-9-4-4-4-4-4-----------------------------------|
F#|-7-7-7-7-7-2-2-2-2-2-9-9-9-9-9-4-4-4-4-4-----------------------------------|
B |-7-7-7-7-7-2-2-2-2-2-9-9-9-9-9-4-4-4-4-4-----------------------------------| X8
    Q S S S S Q S S S S Q S S S S Q S S S S

C#|---------------------------------------------------------------------------|
G#|---------------------------------------------------------------------------|
E |---------------------------------------------------------------------------|
B |-5-5-5-5-5-5-5-5-5-5-7-0---------------------------------------------------|
F#|-5-5-5-5-5-5-5-5-5-5-7-0---------------------------------------------------|
B |-5-5-5-5-5-5-5-5-5-5-7-0---------------------------------------------------|
    Q S S S S Q S S S S E H..


********************************************************************

W - whole; 
H - half; 
Q - quarter; 
E - 8th; 
S - 16th

******************************************************************** 

            
            
Suggest correction
Creating personal tab
Creating personal tab
You can edit any tab online and save it as your Personal.

You can edit, replace or remove any tab part or add personal notes – all changes will be seen only by you.

Personal tabs can be accessed anytime from any device, even offline.
Learn more »
Give kudos to tab author, rate the tab!
1 2 3 4 5
comments
print report bad tab
guest
You may want to rate the tab now too:
select rating
Wanna post a correction for this tab? Suggest correction