Oops, an error
Loading. Please wait.

Cromok - Another You Tab

version 4
version 4

Whole song

Interactive

5,952 views 1 this week
no commentswrite comment
1 2 3 4 5
please rate
add to favorites
launch autoscroll
font size
0
reset
how to read this tab
guitar tuner
Tab Pro tools
  • play this tab
  • loop segment
  • change instrument
  • show fretboard
  • metronome
Autoscroll
slow
fast
+/-
esc
set tempo
stop
Contributor
Difficulty
intermediate
The intro & outro of the Cromok song Another You.
For the acoustic part of the song refer to my other tab.


Electric Guitar (w/distortion)

Intro

E||---------------------------------------------------------|
B||---------------------------8-12--------------------------|
G||---------------------------------------------------------|
D||---------------------------------------------------------|
A||---------------------------------------------------------|
E||---------------------------------------------------------|

-------------------------------|
--8--------8h10p8-7br----------|
-------------------------------|
-------------------------------|
-------------------------------|
-------------------------------|

-----------------------------------------------------------------|
----------------------------------------------7------------------|
--9----------------------------------------------7h9--9----------|
-----------------------------------------------------------------|
-----------------------------------------------------------------|
-----------------------------------------------------------------|

-----------------------------------12------------|
------------------------12h13h15------15p13p12---|
-----------------12h14---------------------------|
-------------------------------------------------|
-------------------------------------------------|
-------------------------------------------------|

--12------------------------------------|
----------15p13p12----------------------|
---------------------14p12-11br---------|
----------------------------------------|
----------------------------------------|
----------------------------------------|

-----------------------------------------------------|
-----------------------------------------12----------|
------------------------------11h12h14---------------|
-----------------------12h14-------------------------|
------------12h14h15---------------------------------|
---------15------------------------------------------|

--------------------12----------------------12-14-15---|
---------12h13h15--------------12h13h15----------------|
--12h14------------------------------------------------|
-------------------------------------------------------|
-------------------------------------------------------|
-------------------------------------------------------|

--15------15-14-12-14br--------|-----------17b----17pbr--17-15-14-|
-------------------------------|----------------------------------|
-------------------------------|----------------------------------|
-------------------------------|----------------------------------|
-------------------------------|----------------------------------|
-------------------------------|----------------------------------|

--15-14-12-14-14h15p14p12-14~---------------|
--------------------------------------------|
--------------------------------------------|
--------------------------------------------|
--------------------------------------------|
--------------------------------------------|

------12----14----15----17----17S19-19~-----|
--12-----12----12----12----12---------------|
--------------------------------------------|
--------------------------------------------|
--------------------------------------------|
--------------------------------------------|

--15h19p15----15------------------------------------|---------------------|
-------------17----17-------------------------------|---------------------|
----------------------16-14-12-11br-----------------|---------------------|
-----------------------------------------12--12h14--|---------------------|
----------------------------------------------------|---------------------|
----------------------------------------------------|--12-----------------|

-----------------------------------------------------|
--12g15------13h15p13-12-13p12-10-12---12br----------|
-----------------------------------------------------|
-----------------------------------------------------|
-----------------------------------------------------|
-----------------------------------------------------|

--------------------------------------------------------|
--10-12------10h12p10p8-10p8S7-8p7S5-7p5S3h5------------|
--------------------------------------------------------|
--------------------------------------------------------|
--------------------------------------------------------|
--------------------------------------------------------|

-----------------------------------------------12---------------------------|
-------------------------12h13h15p13p12-----------15p13p12-15--13p12--------|
--------------11h12h14--------------------14--------------------------------|
-------12h14----------------------------------------------------------------|
----------------------------------------------------------------------------|
----------------------------------------------------------------------------|

----------------------------------------|--------------17brb--------|
--10-13-----12--------------------------|---------------------------|
---------------14-12-11-----------------|---------------------------|
------------------------14-12h14--------|--14-----------------------|
----------------------------------------|--------14-----------------|
----------------------------------------|---------------------------|



Acoustic part of the song is played. Refer to my other tab.



Outro solo

E||-----------------|--------------------------------|-------|
B||-----------------|-----12-15--13--12--13------12--|-------|
G||-----------------|--------------------------------|--14---|
D||-----------------|--------------------------------|-------|
A||-----------------|--------------------------------|-------|
E||-----------------|--------------------------------|-------|

-------------------------------|---------------------------|
-------------------------------|---------------------------|
-----11br----------------------|---------------------------|
---------------14-12-14--------|------12--14---------------|
-------------------------------|--------------14-----------|
-------------------------------|---------------------------|

-----10-12--14--15--17~--------|------17b-----------15--17--17brb--|
-------------------------------|-----------------------------------|
-------------------------------|-----------------------------------|
-------------------------------|-----------------------------------|
-------------------------------|-----------------------------------|
-------------------------------|-----------------------------------|

-------------------|-----17br------15-17-15~------|
-------------------|-----15br---------------------|
-------------------|------------------------------|
-------------------|------------------------------|
-------------------|------------------------------|
-------------------|------------------------------|

-----14br------12-14-12~------|-----------------------12--14~-------12-11-|
-----12br---------------------|------------12h13h15-----------------------|
------------------------------|-----12h14---------------------------------|
------------------------------|-------------------------------------------|
------------------------------|-------------------------------------------|
------------------------------|-------------------------------------------|

--12~----------7-10p8p7------8p7-------7-----------------------|
-------------8------------10------10p8---10p8p-7h10p-8p7-------|
-----------9-------------------------------------------------9-|
---------------------------------------------------------------|
---------------------------------------------------------------|
---------------------------------------------------------------|

------------------12---------------|--------------------------------------|
---------------12---------15-13-12-|--13b------12h13p12-------------------|
--9---------12---------------------|----------------------14--12--11------|
---------14------------------------|----------------------------------14--|
-----------------------------------|--------------------------------------|
-----------------------------------|--------------------------------------|

--------------------|------------------------|--------------------|
--------------------|------------------------|--------------------|
--------------------|------------------------|--------------------|
--13----------------|---------------13S14----|--14----------------|
--------------------|------------------------|--------------------|
--------------------|------------------------|--------------------|



Tablature Legend
----------------
h - hammer on
p - pull off
b - bend
br - bendRelease
pb - preBend
pbr - preBendRelease
brb - bendReleaseBend
\n/ - tremolo bar dip
\n - tremolo bar dive
-/n - tremolo bar Release up
/n\ - tremolo bar inverted dip
/n - tremolo bar return
-\n - tremolo bar Release down
S - shift slide
s - legato slide
/ - slide into from below or out of upwards
\ - slide into from above or out of downwards
~ - vibrato
W - wide vibrato
tr - trill
TP - tremolo picking
T - tapping
S - slap
P - pop
< - fade in
^ - brush up
v - brush down
comments
We did not receive enough feedback on this tab! Please rate:
print report bad tab
1 2 3 4 5
I want to post or [tab]
guest
You may want to rate the tab now too:
select rating
Please do not post tabs as comments. Select "correction" instead!