Oops, an error
Loading. Please wait.

Ctsutter - Live The Skate Life Acoustic tab

130 views 1 this week
no commentswrite comment
1 2 3 4 5
3 more votes to show rating
add to favorites
×
Save as Personal and add changes to this tab that will be seen only by you. Learn more ›
×
You can save this tab as Personal to edit and correct it or add notes. All changes will be seen only by you. Learn more »
launch autoscroll
font size
0
reset
how to read this tab
guitar tuner
edit
Autoscroll
slow
fast
+/-
esc
set tempo
stop
Author
Difficulty
Live The Skate Life

Tempo : 88 bpm

Lyrics : Christian Thomas Sutter

Guitar Tab : Christian Thomas Sutter 

Live The Skate Life written while live streaming on YouNow by Christian Thomas Sutter CTSUTTER
(www.younow.com/ChristianSutter)



Verse 1

e|------------------------|
B|------------------------|
G|------------------------|
D|----5-5-5h-7br-5---5----|
A|-5-7-7-7--------5-7-7-7-|
E|------------------------|

I’ll just have to block the haters

I’ll just have to chill out with my skater friends

This is that skate song that will bring you right back to roots with

Grip tape superior ball bearings

Throw back to the snoopy skateboards and four foot tall ramps on 204

Inwood Manhattan that’s a long way back

Today I is a good day take the skate challenge




Bridge 1

e|-------x-x-x-x-x---------x-x-x-x-x-x----x-x-x---------------x-x-x-x-x-x-x-x-x-x-x-|
B|-------0-0-0-0-0---------0-0-0-0-0-0----0-0-0---------------0-0-0-0-0-0-0-0-0-0-0-|
G|-------x-x-x-x-x---------x-x-x-x-x-x----x-x-x---------------x-x-x-x-x-x-x-x-x-x-x-|
D|----5--5-5-5-5-5-----5---5-5-5-7-5-7----5-5-5h7-7-7-7-7-br5-5-5-5-5-5-5-7-7-7-7-7-|
A|-5h7-7-7-7-7-7-7-5h7---7-7-7-7-7-7-7-5h77-7-7---------------7-7-7-7-7-7-7-7-7-5-5-|
E|-------x-x-x-x-x---------x-x-x-x-x-x----x-x-x---------------x-x-x-x-x-x-x-x-x-x-x-|

Live the skate life

Skate down the sidewalk

You can walk I’m going to roll on

Hit the running and manual away on it.



Chorus

  Pm-------------------------------------------------------|
e|-x--x--x--x--x--x--x--x--x--x--x--x--x--x--x--x--x--x---x-|
B|-0--0--0--0--0--0--0--0--0--0--0--0--0--0--0--0--0--0---x-|
G|-x--x--x--x--x--x--x--x--x--x--x--x--x--x--x--x--x--x---7-|
D|-5--5--5--5--5--5--5--5--5--5--5--5--5--5--5--5--5--5---7-|
A|-7--7--7--7--7--7--7--7--7--7--7--7--7--7--7--7--7--7---5-|
E|-x--x--x--x--x--x--x--x--x--x--x--x--x--x--x--x--x--x---x-|

skate skate skate skate skate on my skateboard

skate skate skate skate skate on my skateboard

skate skate skate skate skate on my skateboard

Every day I’m down to skate hard





Verse 2

e|----------------------|
B|----------------------|
G|----------------------|
D|----5-5-5h7br5---5----|
A|-5-7-7-7------5-7-7-7-|
E|----------------------|

We are going to unite the skaters

Rise up and praise us all

Chain from my pocket to my belt

Hit up the skate park and pull some tricks off

We can walk on air

Been doing it since before hover board

Anything you want to know about this deck

Speak up I’m about to roll off on it




Bridge 2

  Pm-------------------------------------------------------------------------------|
e|-------x-x-x-x-x---------x-x-x-x-x-x----x-x-x---------------x-x-x-x-x-x-x-x-x-x-x-|
B|-------0-0-0-0-0---------0-0-0-0-0-0----0-0-0---------------0-0-0-0-0-0-0-0-0-0-0-|
G|-------x-x-x-x-x---------x-x-x-x-x-x----x-x-x---------------x-x-x-x-x-x-x-x-x-x-x-|
D|----5--5-5-5-5-5-----5---5-5-5-7-5-7----5-5-5h7-7-7-7-7-br5-5-5-5-5-5-5-7-7-7-7-7-|
A|-5h7-7-7-7-7-7-7-5h7---7-7-7-7-7-7-7-5h77-7-7---------------7-7-7-7-7-7-7-7-7-5-5-|
E|-------x-x-x-x-x---------x-x-x-x-x-x----x-x-x---------------x-x-x-x-x-x-x-x-x-x-x-|


Live the skate life

Everyday on a skateboard

You can walk I’m going to roll on

Hit the running and manual away on it.





Chorus

  Pm-------------------------------------------------------|
e|-x--x--x--x--x--x--x--x--x--x--x--x--x--x--x--x--x--x---x-|
B|-0--0--0--0--0--0--0--0--0--0--0--0--0--0--0--0--0--0---x-|
G|-x--x--x--x--x--x--x--x--x--x--x--x--x--x--x--x--x--x---7-|
D|-5--5--5--5--5--5--5--5--5--5--5--5--5--5--5--5--5--5---7-|
A|-7--7--7--7--7--7--7--7--7--7--7--7--7--7--7--7--7--7---5-|
E|-x--x--x--x--x--x--x--x--x--x--x--x--x--x--x--x--x--x---x-|


skate skate skate skate skate on my skateboard

skate skate skate skate skate on my skateboard

skate skate skate skate skate on my skateboard

Every day I’m down to skate hard



Verse 3 ( 1/2 Verse )

e|-----x---------------------------x-------------------------0-0-0-0-0-0-0-|
B|-----0---------------------------0-------------------------0-0-0-0-0-0-0-|
G|-----x---------------------------x-------------------------0-0-0-0-0-0-0-|
D|-----5-7-6-5-7-6-5-7-6-5-7-6-5---5-------------------------5-5-7-7-7-7-5-|
A|-5h7-7-------------------------5h7-7-5-6-7-5-6-7-5-6-7-5h7-7-7-7-7-7-7-7-|
E|-----x---------------------------x-------------------------x-x-x-x-x-x-x-|

Blue hair

Red wheels

Graphics on my deck

Looking really fresh

It's a good time to make a skate film



Bridge 2

e|-------x-x-x-x-x---------x-x-x-x-x-x----x-x-x---------------x-x-x-x-x-x-x-x-x-x-x-|
B|-------0-0-0-0-0---------0-0-0-0-0-0----0-0-0---------------0-0-0-0-0-0-0-0-0-0-0-|
G|-------x-x-x-x-x---------x-x-x-x-x-x----x-x-x---------------x-x-x-x-x-x-x-x-x-x-x-|
D|----5--5-5-5-5-5-----5---5-5-5-7-5-7----5-5-5h7-7-7-7-7-br5-5-5-5-5-5-5-7-7-7-7-7-|
A|-5h7-7-7-7-7-7-7-5h7---7-7-7-7-7-7-7-5h77-7-7---------------7-7-7-7-7-7-7-7-7-5-5-|
E|-------x-x-x-x-x---------x-x-x-x-x-x----x-x-x---------------x-x-x-x-x-x-x-x-x-x-x-|

Live the skate life

Everyday on a skateboard

You can walk I’m going to roll on

Hit the running and manual away on it.





Chorus

  Pm-------------------------------------------------------|
e|-x--x--x--x--x--x--x--x--x--x--x--x--x--x--x--x--x--x---x-|
B|-0--0--0--0--0--0--0--0--0--0--0--0--0--0--0--0--0--0---x-|
G|-x--x--x--x--x--x--x--x--x--x--x--x--x--x--x--x--x--x---7-|
D|-5--5--5--5--5--5--5--5--5--5--5--5--5--5--5--5--5--5---7-|
A|-7--7--7--7--7--7--7--7--7--7--7--7--7--7--7--7--7--7---5-|
E|-x--x--x--x--x--x--x--x--x--x--x--x--x--x--x--x--x--x---x-|


skate skate skate skate skate on my skateboard

skate skate skate skate skate on my skateboard

skate skate skate skate skate on my skateboard

Every day I’m down to skate hard


************************************

| x   Dead note
| p   Pull-off
| r   Release
| PM  Palm mute

************************************

            
            
Suggest correction
Creating personal tab
Creating personal tab
You can edit any tab online and save it as your Personal.

You can edit, replace or remove any tab part or add personal notes – all changes will be seen only by you.

Personal tabs can be accessed anytime from any device, even offline.
Learn more »
Give kudos to tab author, rate the tab!
1 2 3 4 5
comments
print report bad tab
guest
You may want to rate the tab now too:
select rating
Wanna post a correction for this tab? Suggest correction