Oops, an error
Loading. Please wait.

Cut Off Your Hands - Oh Girl tab

995 views 1 this week
1 commentread comment
1 2 3 4 5
x 3
add to favorites
×
Save as Personal and add changes to this tab that will be seen only by you. Learn more ›
×
You can save this tab as Personal to edit and correct it or add notes. All changes will be seen only by you. Learn more »
launch autoscroll
font size
0
reset
how to read this tab
guitar tuner
edit
Autoscroll
slow
fast
+/-
esc
set tempo
stop
Author
-------------------------------------------------------------------------------
                             Oh Girl – Cut Off Your Hands
-------------------------------------------------------------------------------
Tabbed by: Aussiedude777 

Tuning: Standard
Clean Guitar

I hope this is clear and it sounds good to you as this is my first tab. 
If you have any corrections please comment and please rate...

E|-9--9--9--9--9--9—-9----s7--7--7--7--7--7--7--------------------------------|
B|-9--9--9--9--9--9—-9----s7--7--7--7--7--7--7--------------------------------|
G|-9--9--9--9--9--9—-9-x2-s7--7--7--7--7--7--7—x2-----------------------------|
D|11-11-11-11-11-11-11----s9--9--9--9--9--9--9--------------------------------|
A|11-11-11-11-11-11-11----s9--9--9--9--9--9--9--------------------------------|
E|-9--9--9--9--9--9—-9----s7--7--7--7--7--7--7--------------------------------|


If you listen to the song you can pick up the strumming pattern.
Repeat this for the intro and for all the verses.


The chorus is using the same kind of tab but strumming a lot faster than the verses.


E|-9-------7-------9--------7-------9-------7-------9------------------------|
B|-9-------7-------9--------7-------9-------7-------9------------------------|
G|-9—-x8---7—-x8---9—-x24---7—-x8---9—-x8---7-—x8---9—-x8--------------------|
D|11-------9------11--------9------11-------9------11------------------------|
A|11-------9------11--------9------11-------9------11------------------------|
E|-9-------7-------9--------7-------9-------7-------9------------------------|


Solo

E|---------------------------------------------------------------------------|
B|---------------------------------------------------------------------------|
G|------------7-7-----7-7-7-7----------------7-7------11-9-8-7---------------|
D|---9-9-9-9-------9------------9---9-9-9-9-------9-9------------------------|
A|---------------------------------------------------------------------------|
E|---------------------------------------------------------------------------|

E|---------------------------------------------------------------------------|
B|---------------------------------------------------------------------------|
G|--------------11-11----11-11-11-11------------------11-11-------15-13-12-11|
D|--13-13-13-13-------13--------------13---13-13-13-13-------13-13-----------|
A|---------------------------------------------------------------------------|
E|---------------------------------------------------------------------------|

Near the end of the song you just strum the chorus really slowly. 
==========================================================================
Suggest correction
Creating personal tab
Creating personal tab
You can edit any tab online and save it as your Personal.

You can edit, replace or remove any tab part or add personal notes – all changes will be seen only by you.

Personal tabs can be accessed anytime from any device, even offline.
Learn more »
Give kudos to tab author, rate the tab!
1 2 3 4 5
comments
print report bad tab
1 comment total.
0 reply
Benny Fury 136 May 29, 2014 03:33 PM

Way off sorry man. The main chords are a b minor and an a minor.

guest
You may want to rate the tab now too:
select rating
Wanna post a correction for this tab? Suggest correction