Oops, an error
Loading. Please wait.

D Numbers - Xylem Up Tab

1,110 views 1 this week
no commentswrite comment
1 2 3 4 5
x 3
add to favorites
launch autoscroll
font size
0
reset
how to read this tab
guitar tuner
Autoscroll
slow
fast
+/-
esc
set tempo
stop
Help us to improve Ultimate-Guitar.com Take our survey!
×
Author
Im pretty sure the bass is correct. But I might be a little off on the guitar. Please correct me.

BASS
e|--------------------------------------------------------------------------------------|
B|--------------------------------------------------------------------------------------|
G|--------------------------------------------------------------------------------------|
D|--------------------------------------------------------------------------------------|
A|--------------------------------------------------------------------------------------|
E|-1---1---1---1---/4---4---4---8h---11---13---9---9---9---9---11---11---11----11-------|


GUITAR RIFF 
e|----------------------------------------------------------------------------------------------|
B|--6---6---------6---6----------9---9-----------9---9----------9---9---------------------------|
G|---------8--5----------8--5-----------10--8-----------10--8----------10--8--------------------|
D|----------------------------------------------------------------------------------------------|
A|----------------------------------------------------------------------------------------------|
E|----------------------------------------------------------------------------------------------|

e|----------------------------------------------------------------------------------------------|
B|--8---8---------8---8----------8---8-----------6---6----------6---6---------------------------|
G|---------10--5---------10--5----------10--5-----------8--5-----------8---5--------------------|
D|----------------------------------------------------------------------------------------------|
A|----------------------------------------------------------------------------------------------|
E|----------------------------------------------------------------------------------------------|

e|----------------------------------------------------------------------------------------------|
B|--6---6---------6---6----------9---9-----------9---9----------9---9----------9---9------------|
G|---------8--5----------8--5-----------10--8-----------10--8----------10--8----------10--8-----|
D|----------------------------------------------------------------------------------------------|
A|----------------------------------------------------------------------------------------------|
E|----------------------------------------------------------------------------------------------|

e|----------------------------------------------------------------------------------------------|
B|--11---11----------11---11----------11---11---------------------------------------------------|
G|-----------12--8------------12--8------------12--8--------------------------------------------|
D|----------------------------------------------------------------------------------------------|
A|----------------------------------------------------------------------------------------------|
E|----------------------------------------------------------------------------------------------|
Suggest correction
Give kudos to tab author, rate the tab!
1 2 3 4 5
comments
print report bad tab
guest
You may want to rate the tab now too:
select rating
Wanna post a correction for this tab? Suggest correction