Oops, an error
Loading. Please wait.

Danita - Kung Wala Na Nga tab

1,382 views 1 this week
1 commentread comment
1 2 3 4 5
2 more votes to show rating
add to favorites
×
Save as Personal and add changes to this tab that will be seen only by you. Learn more ›
×
You can save this tab as Personal to edit and correct it or add notes. All changes will be seen only by you. Learn more »
launch autoscroll
font size
0
reset
how to read this tab
guitar tuner
edit
Autoscroll
slow
fast
+/-
esc
set tempo
stop
Difficulty
Artist: Danita
Title : Kung Wala Na Nga
Album : Promotor
Year  : 2007
Genre : OPM

Ear Tabber: Ed Padilla
School: St. John The Baptist Catholic School (SJBCS)(2nd YR. High School)

Transferee lang po ako sa school na to pero dati po ako sa JRU. 
This Is My First Tab!!! hehehe... Paki-rate po pls...
Mas Tama na po ito sa nauna kong na-send.
Crush na Crush kita Myla!!!!

Em- 0222xx

INTRO: (2x)

(Power) CHORDS USED: D - B - C
e|----------------------------------|
B|------3-----3-----3---------------|
G|----2-----2-----2-----------------|
D|--0-------------------------------|    (2x)
A|--------2-----3-------------------|
E|----------------------------------|

INTRO 2:

Guitar 1: (Strumming)
e|----------------------------------|
B|----------------------------------|
G|---7777-44-55---------------------|
D|---7777-44-55---------------------|    (2x)
A|---5555-22-33---------------------|
E|----------------------------------|

Guitar 2: (Plucking)
e|---------------------------------------------------|
B|---------7-7h8-7----7h8/15------7-7h8-7----7h8/10--|
G|----/7-7---------7---------/7-7---------7----------|
D|---------------------------------------------------|    (2x)
A|---------------------------------------------------|
E|---------------------------------------------------|

Verse 1: (Palm Muted)

(Power) Chords Used: D - B - C

Sinong ang  nagalit, sinong may tampo?
Sinong sisisihin , sinong may gusto nito?

Refrain:

(Power) Chords Used: B - C

Ang lahat ay nag-iiba (2x)

Chorus:

(Power) Chords Used: D - F#m - B(G - F#m - Em)(Tag-iisang bagsak lang po ito)

Bakit mo iisipin, bakit mo pipigilan?
Bakit mo aasahan, Kung Wala Na Nga
Bakit mo iisipin, bakit mo pipigilan?
Bakit mo aasahan, Kung Wala Na Nga

Repeat INTRO (W/out the Plucking)

Verse 2: (Palm Muted)

(Power) Chords Used: D - B - C

Saan nagkulang, sinong nagalit sa'yo?
Saan binitawan, saan hahanapin ngayon?

Refrain:

(Power) Chords Used: B - C

Ang lahat ay nag-iiba (2x)

Chorus:

(Power) Chords Used: D - F#m - B(G - F#m - Em)(Tag-iisang bagsak lang po ito)

Bakit mo iisipin, bakit mo pipigilan?
Bakit mo aasahan, Kung Wala Na Nga
Bakit mo iisipin, bakit mo pipigilan?
Bakit mo aasahan, Kung Wala Na Nga

Interlude:

(Power) CHORDS USED: D - B - C

Guitar 1: (Strumming) (Palm Muted)

e|----------------------------------|
B|----------------------------------|
G|---7777-4444-5555-----------------|
D|---7777-4444-5555-----------------|  (2x)
A|---5555-2222-3333-----------------|
E|----------------------------------|

Guitar 1: (Strumming) (Palm Muted) (Dito na po papasok ung Lead Guitar)

e|----------------------------------|
B|----------------------------------|
G|---7777-4444-5555-----------------|
D|---7777-4444-5555-----------------|  (2x)
A|---5555-2222-3333-----------------|
E|----------------------------------|

Guitar 2: (Plucking) (Timingan ninyo na lang po) 
                     (Maririnig ninyo na lang po ito)

e|---------------------------10h12p10----------------------|
B|-----7h8-7h8h10-7h8-7h8h10----------7h8-7h8h10-7h8-7h8h10|
G|---------------------------------------------------------|
D|---------------------------------------------------------|
A|---------------------------------------------------------|
E|---------------------------------------------------------|

Refrain:

(Power) Chords Used: B - C

Ang lahat ay nag-iiba (2x)

Chorus: (2x)

(Power) Chords Used: D - F#m - B(G - F#m - Em)(Tag-iisang bagsak lang po ito)

Bakit mo iisipin, bakit mo pipigilan?
Bakit mo aasahan, Kung Wala Na Nga
Bakit mo iisipin, bakit mo pipigilan?
Bakit mo aasahan, Kung Wala Na Nga

Coda: (Pagkatapos po ng D Isang bagsak lang po ulit ung tatlong huling 
       chords sa Chorus Ung (G - F#m - Em)

(Power) Chords Used: (D - G - F#m - Em)
e|----------------------------------|
B|----------------------------------|
G|---7777---------------2-----------|
D|---7777---5-----4-----2-----------|   (2x)
A|---5555---5-----4-----2-----------|
E|----------3-----2-----0-----------|

Kung Wala Na Nga
Kung Wala Na Nga

Last Chord: 

e|----------|
B|----------|
G|---7777---|
D|---7777---|   
A|---5555---|
E|----------|


            
            
Suggest correction
Creating personal tab
Creating personal tab
You can edit any tab online and save it as your Personal.

You can edit, replace or remove any tab part or add personal notes – all changes will be seen only by you.

Personal tabs can be accessed anytime from any device, even offline.
Learn more »
Give kudos to tab author, rate the tab!
1 2 3 4 5
comments
print report bad tab
1 comment total.
0 reply
skylinepigeon06 10 Aug 16, 2007 05:39 AM

KEEP UP THE GOOD WORK......MORE POWER!!MORE MUSIC!! IPAGPATULOY MO LANG ANG IYONG MAGANDANG PANGARAP SA BUHAY PARA MAABOT MO ANG LAHAT NG IYON....GOD BLESS!

guest
Wanna post a correction for this tab? Suggest correction