Oops, an error
Loading. Please wait.

Das Projekt - Blatt Papier tab

version 1
version 1

Whole song

Interactive

295 views 1 this week
1 commentread comment
1 2 3 4 5
2 more votes to show rating
add to favorites
×
Save as Personal and add changes to this tab that will be seen only by you. Learn more ›
×
You can save this tab as Personal to edit and correct it or add notes. All changes will be seen only by you. Learn more »
launch autoscroll
font size
0
reset
how to read this tab
guitar tuner
edit
Autoscroll
slow
fast
+/-
esc
set tempo
stop
Author
Difficulty
-------------------------------------------------------------------------------
                          Das Projekt (Berlin)   -  Blatt Papier
-------------------------------------------------------------------------------
Tabbed by: Martin Messner
Email: BigBonsai@hotmail.de

Tuning: Standard

//////////////////////////////////////////////
//                                          //
//  RATING THIS TAB TAKES ABOUT 5 SECONDS   //
//  AND HELPS ME TO IMPROVE MY WORK         //
//                                          //
//////////////////////////////////////////////

////////////////////////////C O N T E N T\\\\\\\\\\\\\\\\\\\\\\\\

I.      Die Gitarre               | I.    The Guitar
           Intro                  |          Intro
           Hauptteil              |          Mainpart
           HowTo                  |          HowTo
II.     Die Harmonika             | II.   The Harmonica
           Erster Teil            |          Part 1
           Zeiter Teil            |          Part 2
           Tipps für Gitarren-Solo|          Tips for Guitar-Solo
III.    Die Trompete              | III.  The Trumpet
IV.     Der Text                  | IV.   Lyrics


I. D I E    G I T A R R E

Intro
e|---------------------------|
B|-----9-----9-----9-----9---|
G|-------0-----0-----0-----0-| 2x (also 8 Mal die Abfolge)
D|---------------------------|    (8 times this pattern)
A|---8-----8-----8-----8-----|
E|---------------------------|

der Hauptteil (the main part)
e|-------------------------------------------------------------------|
B|----4-------4------8-------8-------8-----9-------9-----4-------4---|
G|------0-------0------0-------0-------0-----0-------0-----0-------0-|
D|-------------------------------------------------------------------|
A|--3-------3------6-------6-------6-----8-------8-----3-------3-----|
E|-------------------------------------------------------------------|


e|-------------------------------------------------------|
B|----4-------4-3--1-----1--1-----3-----4----------------|
G|------0-------------3-------0-----0----(0)-------------|
D|-------------------------------------------------------|
A|--3-------3---------------3---3-----3-----(3)----------|
E|--------------3-(3)(3)(3)------------------------------|

Zupft die Saiten am besten mit der Technik der akustischen Gitarre (ohne Plektrum;Daumen 
Mittel- und Zeigefinger / Ring- und Mittelfinger)

Its best using Hybrid Picking like we are used to with acoustic guitar (not played with 
thumb + middle finger and pointer/ring finger and middle finger)

Die Töne der E und A Saite greift man mit dem Mittelfinger, um mit dem Zeige-, Ring- und 
Finger die Töne der B(bzw. H Saite) zu greifen.

Play the Notes of the E and A String with your middle finger to make sure that your 
ring finger and pinky can grab the notes on the B String.

Die Technik kann man auch kurz im youtube video erkennen. (1:08 - 1:11)

This technique is also shown on the youtube video at 1:08 - 1:11.

--------------------------------------------------------------------------|
--------------------------------------------------------------------------|
II. D I E   H A R M O N I K A    (yaaay Harmonika - rate 5***** XD)

Erster Auftritt:
e|-----------------------------------------------------------8--|
B|---------------------------------8------6---8---8------6------|
G|---8------7---8---8------7---5---8------7---8---8------7---8--|
D|--------------------------------------------------------------|
A|--------------------------------------------------------------|
E|--------------------------------------------------------------|

Zweiter Auftritt(1/2):
e|----3--------3-3-3-----4-----3-3-3-----3---1-1-1---3----------|
B|----4--------4-4-4-----3-----4-4-4-----4---3-3-3---4----------|
G|----5--------5-5-5-----0-----5-5-5-----5---3-3-3---5----------|
D|----5--------5-5-5---3-3-----5-5-5-----5---3-3-3---5----------|
A|--3-3------3-3-3-3---------3-3-3-3---3-3---1-1-1---3----------|
E|--------------------------------------------------------------|


(2/2) es handelt sich mehr um ein improvisiertes Harmonika-Solo (nice!)

ich schlag vor auf der Pentatonik zu improvisieren:
I propose to improvise on the pentatonic scale:

Stellt euch einfach vor, das hier wäre eine Gitarre mit Bünden.
Lets pretend this is a guitar, with a fret board and stuff...

Die "O"s stellen spielbare Noten dar, die "X"s zeigen an wo sich der Hauptton "G" 
möglichst am Anfang und Ende von einer Phase spielen).
The "O"s mark playable Notes, the "X"s mark the places where the "G" is seated. I advise 
start and end most of the parts of the solo on one of these notes.
||---|---|-X-|---|---|-O-|---|
||---|---|-O-|---|---|-O-|---|
||---|---|-O-|---|-0-|---|---|
||---|---|-O-|---|-X-|---|---|
||---|---|-O-|---|-O-|---|---|
||---|---|-X-|---|---|-O-|---|
   1.  2.  3.  4.  5.  6.  7.  Bund (Fret)

III. D I E   T R O M P E T E

e|------------------6----6---8--6-------------6------------------------|
B|-----6-8h9p8---9-----9-----------9--8---8-9----9-8-6---6---6-8-6-----|
G|---8-----------------------------------------------------8-------5~--|
D|---------------------------------------------------------------------|
A|---------------------------------------------------------------------|
E|---------------------------------------------------------------------|


e|---8~~~~--8--10--11--10--8--6--8-----8--6--4--3--1--3-4-3------------|
B|-----------------------------------------------------------1~~~------|
G|---------------------------------------------------------------------|
D|---------------------------------------------------------------------|
A|---------------------------------------------------------------------|
E|---------------------------------------------------------------------|


IV. D E R    T E X T

Gib' mir ein Blatt Papier, ich schreib was für dich drauf
und wenn du willst...     dann heb ich es für dich auf.

*Harmonika Part 1*

Und wenn du mal ganz allein bist und du fühlst dich schwach und leer
dann liest du mich mit jeder Zeile ein Stück näher.

Es ist kein Gedicht das sich um deine Schönheit dreht
es ist ein Gedanke der wie ein müder Tag vergeht!

Doch der Gedanke ist zu schön, um ihn einfach weg zu denken
drum' schreib ich ihn auf.... um ihn dir zu schenken.

*Harmonika Part 2 + Trompete*

Und wenn dir mal danach ist und du hast ein bisschen Ruh'
ich lies dir Platz, dann schreib' doch was dazu!


Über Bewertungen und Kommis würde ich mich wirklich freuen =)


http://www.youtube.com/watch?v=bRL07vkd9e8
Wirklich, schauts euch an, tolles Lied =)

Martin

            
            
Suggest correction
Creating personal tab
Creating personal tab
You can edit any tab online and save it as your Personal.

You can edit, replace or remove any tab part or add personal notes – all changes will be seen only by you.

Personal tabs can be accessed anytime from any device, even offline.
Learn more »
Give kudos to tab author, rate the tab!
1 2 3 4 5
comments
print report bad tab
1 comment total.
0 reply
DownWithTheSick 10 Aug 23, 2009 12:59 AM

Boah, dass du das sooo aufwändig machst hätte ich jetzt echt net erwartet :O aber danke, echt!

guest
You may want to rate the tab now too:
select rating
Wanna post a correction for this tab? Suggest correction