Oops, an error
Loading. Please wait.

Datus Tribe - Lakambini Bottom tab

3,967 views 15 this week
1 commentread comment
1 2 3 4 5
1 last vote to show rating
add to favorites
×
Save as Personal and add changes to this tab that will be seen only by you. Learn more ›
×
You can save this tab as Personal to edit and correct it or add notes. All changes will be seen only by you. Learn more »
launch autoscroll
font size
0
reset
how to read this tab
guitar tuner
edit
Autoscroll
slow
fast
+/-
esc
set tempo
stop
Author
Song         : Lakambini Bottom
Artist       : Datu's Tribe
Album        : Galit Kami Sa Baboy!
Transcribe by: Patrick Baraquel - Antipolo City
Friendster   : popoybibbo@rock.com < message me if you have comments or  
               suggestions "add me">
Dedicated to : pra s mga eX ko at pra s future gf ko.. sa N4(negro 4ever) 
               paulo, jepoy, garz and jojo... s mga bourgeois ng grinpark..
               pra s pamilya ko and s mga utol ko "epang and charles"...
               lastly, PARA SAYO!!! LOL! IF U DONT MIND PLS RATE IT NLNG! =D
Suggestion   : sabayan mo un kanta

Intro:  G-D-C 4x 

I.      
e|---3--3------------|
B|---3--2--1---------|
G|---0--3------------|
D|---0--0--2---(4x)--|
A|---2-----3---------|
E|---3---------------|

II.
e|---x--x--x---------|
B|---x--x--x---------|
G|---x--x--x---------|
D|---x--7--5---(4x)--|
A|---5--5--3---------|
E|---3--x--x---------|

verse I: G-D-E-C

e|---x----x----x----x---------|
B|---x----x----x----x---------|
G|---x----x----x----x---------|
D|---x----7----9----5---(2x)--|
A|---5----5----7----3---------|
E|---3----x----x----x---------|

Pagbaba palang ng comb ay tinitigan ko na 
Tibok ng puso ko niyayanig ng lakad nya 
46 ang waist 
58 ang bra 
350 pounds na gumigiling sa kalsada 

after verse: play intro II (2x)


verse II: G-D-E-C

e|---x----x----x----x---------|
B|---x----x----x----x---------|
G|---x----x----x----x---------|
D|---x----7----9----5---(2x)--|
A|---5----5----7----3---------|
E|---3----x----x----x---------|

Tuwing sya’y ngumingiti 
hirap ang facial muscles nya 
Kahit di ko nakikita 
love na love ko ang chick bones nya 
Tuwing sya’y nagdadabog 
lumilindol sa Barangay 
Kapag syay tumatawa 
bilbil nya’y kumakaway 


Chorus: G-D-C 
e|---x--x--x---------|
B|---x--x--x---------|
G|---x--x--x---------|
D|---x--7--5---(4x)--|
A|---5--5--3---------|
E|---3--x--x---------|
Binibining Sexy

refrain: E-D-C(hold) 2x then C#m
e|---x----x----x----------x--------|
B|---x----x----x----------x--------|
G|---x----x----x----------x--------|
D|---9----7----5--(hold)--6--------|
A|---7----5----3----------4--------|
E|---x----x----x----------x--------|

Eh ano nyayon kung mataba sya 
Mas masarap daw magmahal ng babaeng lumba-lumba 
Eh ano ngayon kung mabigat sya 
Imbes na tawaging 
Baboy,Porkchop, 
Titson Baka,Dabyana, 
Sisters Moron For there’s more to 
love(more to love!)alright! 


Chorus: G-D-C 
e|---x--x--x---------|
B|---x--x--x---------|
G|---x--x--x---------|
D|---x--7--5---(4x)--|
A|---5--5--3---------|
E|---3--x--x---------|

Binibining Sexy (type kita) 
Binibining Sexy (kahit matabang,matabang,mataba ka) 
Binibining Sexy (love kita) 
Binibining Sexy 

Instrumentals: play intro II 

refrain: E-D-C(hold) 2x then C#m
e|---x----x----x----------x--------|
B|---x----x----x----------x--------|
G|---x----x----x----------x--------|
D|---9----7----5--(hold)--6--------|
A|---7----5----3----------4--------|
E|---x----x----x----------x--------|

Legs nya’y mala troso ang dating 
Pamatay ng dalag 
Pwedeng paddle sa Hazing 
Salawal nya’y pwedeng trapal pag may libing 
Ano man ang sabihin 
Friends ko sa friends theres 
Sa iskwela sa bahay pati na sa barangay 
Wala na bang karapatang ma in-love ang ubod ng taba ahh 


Chorus: G-D-C 
e|---x--x--x---------|
B|---x--x--x---------|
G|---x--x--x---------|
D|---x--7--5---(8x)--|
A|---5--5--3---------|
E|---3--x--x---------|

Alright Binibining Sexy (You maybe fat) 
Binibining Sexy (Why I love you like that?) 
Binibining Sexy (Some say you look like a pig) 
Binibining Sexy (I love my woman really big) 
Binibining Sexy 
(Ano bang problema kung mataba,mataba,mataba(then fade) Binibining Sexy,Binibining 
Sexy,Binibining Sexy(then fade))
 

            
            
Suggest correction
Creating personal tab
Creating personal tab
You can edit any tab online and save it as your Personal.

You can edit, replace or remove any tab part or add personal notes – all changes will be seen only by you.

Personal tabs can be accessed anytime from any device, even offline.
Learn more »
Give kudos to tab author, rate the tab!
1 2 3 4 5
comments
print report bad tab
1 comment total.
0 reply
popoybibbo 20 Oct 20, 2005 08:10 AM

sorry mali nalagay ko sa last chord un C#m.. C pla un nka limutan ko e... tao lng po

refrain: E-D-C(hold) 2x then C
e|---x----x----x----------x--------|
B|---x----x----x----------x--------|
G|---x----x----x----------x--------|
D|---9----7----5--(hold)--7--------|
A|---7----5----3----------5--------|
E|---x----x----x----------x--------|

guest
You may want to rate the tab now too:
select rating
Wanna post a correction for this tab? Suggest correction