Oops, an error
Loading. Please wait.

David Dundas - Jeans On bass

634 views 1 this week
no commentswrite comment
1 2 3 4 5
3 more votes to show rating
add to favorites
×
Save as Personal and add changes to this tab that will be seen only by you. Learn more ›
×
You can save this tab as Personal to edit and correct it or add notes. All changes will be seen only by you. Learn more »
launch autoscroll
font size
0
reset
guitar tuner
edit
Autoscroll
slow
fast
+/-
esc
set tempo
stop
Author
Difficulty
-----------------------------------------------------------------
Jeans On - David Dundas
-----------------------------------------------------------------

Tabbed By : wopi75
e-mail: 

Tuning: Standard EADG

Tempo: 105 bpm

Intro & Verse 1 (no bass):

        G              D
When I wake up in the morning light,

   G                          C
I pull on my jeans and I feel all right.
 
G                       C          D                 G
I pull my blue jeans on, I pull my old blue jeans on.

G                       C          D                 G
I pull my blue jeans on, I pull my old blue jeans on.


from Verse 1      |Verse 2:
  G               |G                D                G                C
  1 + 2 + 3 + 4 + |1 + 2 + 3 + 4 +  1 + 2 + 3 + 4 +  1 + 2 + 3 + 4 +  1 + 2 + 3 + 4 +  
G|----------------|----------------|----------------|----------------|----------------|
D|----------------|--5---5-\-------|------12\-------|------5-\-------|------10\-------|
A|----------------|----5-----------|----12----------|----5-----------|----10----------|
E|------------2---|----------------|--10------------|--3-------------|--8-------------|

  G                C       D        G
  1 + 2 + 3 + 4 +  1 + 2 + 3 + 4 +  1 + 2 + 
G|----------------|----------------|--------|
D|----------------|----------------|--------|
A|----------------|3---3---5---5---|--------|
E|3---3---3---3---|----------------|3---3---|

  G                C       D        G
  1 + 2 + 3 + 4 +  1 + 2 + 3 + 4 +  1 + 2 + 3 + 4 +  
G|----------------|----------------|----------------|
D|----------------|----------------|----------------|
A|----------------|3---3---5---5---|--------2-2-5-5-|
E|3---3---3---3---|----------------|3---3-3---------|


Chorus:
  Em                                C                B                
  1 + 2 + 3 + 4 +  1 + 2 + 3 + 4 +  1 + 2 + 3 + 4 +  1 + 2 + 3 + 4 +  
G|----------------|----------------|----------------|----------------|
D|----------------|----------------|----------------|------------9-8-|
A|7---7-----------|--------------2-|3-------3-------|2-------2-7-----|
E|------7---------|3---x-3---3-5---|----3-------3---|----2-----------|

  A                                 D
  1 + 2 + 3 + 4 +  1 + 2 + 3 + 4 +  1 + 2 + 3 + 4 +  1 + 2 + 3 + 4 +  
G|----------------|----------------|----------------|----------------|
D|7-------7-------|7-7-------------|----------------|----------------|
A|----7-------7---|----7-4-------4-|5---x-5-7---x-7-|8---x-8-9-------|
E|----------------|--------5-5-7---|----------------|------------2---|


Verse 3:
  G                D                G                C
  1 + 2 + 3 + 4 +  1 + 2 + 3 + 4 +  1 + 2 + 3 + 4 +  1 + 2 + 3 + 4 +  
G|----------------|----------------|----------------|----------------|
D|--5---5-\-------|------12\-------|------5-\-------|------10\-------|
A|----5-----------|----12----------|----5-----------|----10----------|
E|----------------|--10------------|--3-------------|--8-------------|

  G                C       D        G
  1 + 2 + 3 + 4 +  1 + 2 + 3 + 4 +  1 + 2 + 
G|----------------|----------------|--------|
D|----------------|----------------|--------|
A|----------------|3---3---5---5---|--------|
E|3---3---3---3---|----------------|3---3---|

  G                C       D        G
  1 + 2 + 3 + 4 +  1 + 2 + 3 + 4 +  1 + 2 + 
G|----------------|----------------|--------|
D|----------------|----------------|--------|
A|----------------|3---3---5---5---|--------|
E|3---3---3---3---|----------------|3---3---|

  G                C       D        G
  1 + 2 + 3 + 4 +  1 + 2 + 3 + 4 +  1 + 2 + 3 + 4 +  1 + 2 + 3 + 4 +  
G|----------------|----------------|----------------|----------------|
D|----------------|----------------|----------------|----------------|
A|----------------|3---3---5---5---|----------------|--------2-2-5-5-|
E|3---3---3---3---|----------------|3---3---3---3---|3---3-3---------|


Chorus


Verse 1:  (repeat till fade-out)
  G                D                G                C
  1 + 2 + 3 + 4 +  1 + 2 + 3 + 4 +  1 + 2 + 3 + 4 +  1 + 2 + 3 + 4 +  
G|----------------|----------------|----------------|----------------|
D|--5---5-\-------|------12\-------|------5-\-------|------10\-------|
A|----5-----------|----12----------|----5-----------|----10----------|
E|----------------|--10------------|--3-------------|--8-------------|

  G                C       D        G
  1 + 2 + 3 + 4 +  1 + 2 + 3 + 4 +  1 + 2 + 
G|----------------|----------------|--------|
D|----------------|----------------|--------|
A|----------------|3---3---5---5---|--------|
E|3---3---3---3---|----------------|3---3---|

  G                C       D        G
  1 + 2 + 3 + 4 +  1 + 2 + 3 + 4 +  1 + 2 + 
G|----------------|----------------|--------|
D|----------------|----------------|--------|
A|----------------|3---3---5---5---|--------|
E|3---3---3---3---|----------------|3---3---|

  G                C       D        G
  1 + 2 + 3 + 4 +  1 + 2 + 3 + 4 +  1 + 2 + 3 + 4 +  1 + 2 + 3 + 4 +  
G|----------------|----------------|----------------|----------------|
D|----------------|----------------|----------------|------5)--------|
A|----------------|3---3---5---5---|----------------|-(2-5-----------|
E|3---3---3---3---|----------------|3---3---3---3---|3-----------2---|

                                                      (variation from the YT video,
                                                        not part of original song)

| /  slide up
| \  slide down
| h  hammer-on
| p  pull-off
| ~  vibrato
| +  harmonic
| x  Mute note


inspired by chords tab by Kraziekhat
inspired by bass cover video by infusion26, check out Youtube file ID: EyEUvN5JjOE
comments and corrections appreciated

            
            
Suggest correction
Creating personal tab
Creating personal tab
You can edit any tab online and save it as your Personal.

You can edit, replace or remove any tab part or add personal notes – all changes will be seen only by you.

Personal tabs can be accessed anytime from any device, even offline.
Learn more »
Give kudos to tab author, rate the tab!
1 2 3 4 5
comments
print report bad tab
guest
You may want to rate the tab now too:
select rating
Wanna post a correction for this tab? Suggest correction