Oops, an error
Loading. Please wait.

David Kilpatrick - The Last Farmer Tab

38 views 1 this week
no commentswrite comment
1 2 3 4 5
3 more votes to show rating
add to favorites
launch autoscroll
font size
0
reset
how to read this tab
guitar tuner
Autoscroll
slow
fast
+/-
esc
set tempo
stop
Help us to improve Ultimate-Guitar.com Take our survey!
×
Author
Difficulty
Tuning
intermediate
D A D G B E
-------------------------------------------------------------------------------
                             The Last Farmer - David Kilpatrick
-------------------------------------------------------------------------------

Tabbed by:  Tobias Hann
E-mail:         tobiashann@fastmail.fm

Tuning: Drop D - DADGBe

Intro:

  Dm Am Dm Am
e|-1--0--1--0--|
B|-3--1-----1--|
G|-2--2--2--2--|
D|-0-----------|
A|----0-----0--|
D|-------0-----|

Part A:
                                                                      2x
e|-------------------|--------0----------------|---------------------|
B|--------1--1/3--3--|--3--------0--0h1--0-----|---------------------|
G|--0h2-2------------|----------------------2--|--0h2p0-----0--2--2--|
D|-------------------|-----0-------------------|---------2-----------|
A|---0---------------|--------------0----------|---------------0-----|
D|-------------0-----|--5----------------------|--2------------------|
Repeat 3x


Part B:

e|------------10-10-9-|--5h7p5p3--3h5p3p2-------------|
B|-----5-6------------|--------------------0-3-1-0----|
G|--7------7----------|----------------------------0--|
D|--0-----------------|-------------------------------|
A|-------------0------|--0-----------0-------0---0----|
D|--------------------|-------------------------------|

e|------0-------------|----------------|
B|--1-3---3--3--------|------0----3-3--|
G|-------------5-4-0--|--0-2---0-------|
D|--------------------|----------------|
A|--3-----------------|--0--------0----|
D|-----------5--------|----------------|
Repeat 3x

(I am not sure with fast part of the second measure)

Part C:

e|--1-0-1-----------------0--|
B|--3-------0----0--1-0-1-1--|
G|--2-----0---0-----2-0-0-0--|
D|--0---------------2-2-2----|
A|------------------0-2-3-3--|
D|----------2---5------------|
Repeat 3x


Play in the following order: A B A B C A B A

There are some minor variations in the original recording, be sure to listen carefully 
to the song if you want to catch them all!


************************************

| /   slide up
| \   slide down
| h   hammer-on
| p   pull-off
| ~   vibrato
| +   harmonic
| x   Mute note
| b   Bend
| pb  Pre-bend
| br  Bend release
| pbr Pre-bend release
| brb Bend release bend

************************************
Suggest correction
Give kudos to tab author, rate the tab!
1 2 3 4 5
comments
print report bad tab
guest
You may want to rate the tab now too:
select rating
Wanna post a correction for this tab? Suggest correction