Oops, an error
Loading. Please wait.

Dear Elisabeth - Sushi And Tea Tab

10 views 1 this week
no commentswrite comment
1 2 3 4 5
3 more votes to show rating
add to favorites
launch autoscroll
font size
0
reset
how to read this tab
guitar tuner
Autoscroll
slow
fast
+/-
esc
set tempo
stop
Help us to improve Ultimate-Guitar.com Take our survey!
×
Author
Intro/Verse
e|----------3-----------------3-----------------3-----------------3---------|
B|------3-------3---------3-------3---------3-------3---------3-------3-----|
G|----0---0---0---0-----0---0---0---0-----0---0---0---0-----0---0---0---0---|
D|--------------------------------------------------------------------------|
A|--------------------------------------------------------------------------|
E|--3-----------------2-----------------0-----------------0-----------------|

e|----------3-----------------3-----------------3-----------------3---------|
B|------3-------3---------3-------3---------3-------3---------3-------3-----|
G|----0---0---0---0-----0---0---0---0-----0---0---0---0-----0---0---0---0---|
D|--------------------------------------------------------------------------|
A|--3-----------------2-----------------0-----------------0-----------------|
E|--------------------------------------------------------------------------|

 [Interlude/Outro]
e|----------0-----------------0-----------------0-----------------0---------|
B|------3-------3---------3-------3---------3-------3---------3-------3-----|
G|----0---0---0---0-----0---0---0---0-----0---0---0---0-----0---0---0---0---|
D|--------------------------------------------------------------------------|
A|--------------------------------------------------------------------------|
E|--3-----------------2-----------------0-----------------0-----------------|

e|----------0-----------------0-----------------0-----------------0---------|
B|------3-------3---------3-------3---------3-------3---------3-------3-----|
G|----0---0---0---0-----0---0---0---0-----0---0---0---0-----0---0---0---0---|
D|--------------------------------------------------------------------------|
A|--------------------------------------------------------------------------|
E|--3-----------------2-----------------0-----------------0-----------------|

I SAW YOUR NAME IN THE PAPER TODAY
YOU HAD GOT A STIPENDIARY FOR YOUR EXCELLENT GRADES
IT’S A LONG TIME SINCE WE MET
I HOPE THAT YOU’RE FEELING VERY WELL

WOULD YOU LIKE TO SPEND SOME EVENING WITH ME
I CAN MAKE YOU SOME SUSHI AND SOME TEE
WE CAN VISIT THE CINEMA
GOT BYE LENIN HAS COME TO TOWN
Suggest correction
Give kudos to tab author, rate the tab!
1 2 3 4 5
comments
print report bad tab
guest
You may want to rate the tab now too:
select rating
Wanna post a correction for this tab? Suggest correction