Oops, an error
Loading. Please wait.

Dear Juliet - If The Moon Fell Down Tonight tab

version 1
version 1

Whole song

25,835 views 3 this week
6 commentsread comments
1 2 3 4 5
x 6
add to favorites
×
Save as Personal and add changes to this tab that will be seen only by you. Learn more ›
×
You can save this tab as Personal to edit and correct it or add notes. All changes will be seen only by you. Learn more »
launch autoscroll
font size
0
reset
how to read this tab
guitar tuner
edit
Autoscroll
slow
fast
+/-
esc
set tempo
stop
So I tabbed this before, and I tabbed it open.
 Which you can screw around with and make work.

But it is easier to capo 3rd fret and play it like this.


E----------------------------|
B-----1-------1-1----1-------|
G-----0--------0--0---0------|
D-----0h2----------2---------|     twice
A--3-------------------------|
E----------------------------|

E-----------------------------------------------|
B----------1-1------1----------1----1-1-----1---|
G-----------0--0-----0---------0h2---2---2---2--|
D----------------0----0--------3-----------3--3-|
A----0h2----------------------------------------|
E--3-----------------------1--------------------|


E-----------------------|
B---------1-1-----1-----|
G----------0---0---0----|
D---------------0---0---|        all of this twice, the nthe chorus is
A---0h2-----------------|
E-3---------------------|


E--------------------------|
B----11-----00------11-111-|
G----00-----00------22-222-|
D----22-----00------33-333-|
A--3-33-----22------00-000-|
E--------3--33----1--------|

There is your song, Next I am going to do I'm Ready so be on  the look.


myspace.com/tightdenimrules11

            
            
Suggest correction
Creating personal tab
Creating personal tab
You can edit any tab online and save it as your Personal.

You can edit, replace or remove any tab part or add personal notes – all changes will be seen only by you.

Personal tabs can be accessed anytime from any device, even offline.
Learn more »
comments
print report bad tab
6 comments total. Showing first comments.
-2 reply
Justtin 31 Apr 05, 2008 08:56 PM

Haha, there's definitely a slide in the intro.

For instance, you have it written:

E-------0----0------0--------|
B----------0----------0------|
G---0h2--------2--------2----|
D-2--------------2-----------|
A----------------------------|
E----------------------------|

but it is actually:

E---------0----0------0--------|
B----0-------0----------0------|
G----------------2--------2----|
D-2--4/6-----------2-----------|
A------------------------------|
E------------------------------|

Notice the open B while starting the slide.
Figure the rest out yourself. Haha.

0 reply
PeytonManningl8 31 Apr 30, 2008 08:50 PM

Intro
E----------0---0------0---------|
B---0--------0------------0-----|
G-------------------------------|
D-2-4h6-----------6-4-------6-4-|
A-------------------------------|
E-------------------------------|

Verse
E----------0---0------0--------------------0---0------0-----------|
B---0--------0------------0---------0--------0------------0-------|
G-----------------------------------------------------------------|
D-2-4h6-----------6-4-------6-4-------------------6-4-------6-4---|
A---------------------------------2-4h6---------------------------|
E-----------------------------------------------------------------|

E----------0---0------0--------------------0---0------0-----------|
B---0--------0------------0---------0--------0------------0-------|
G-----------------------------------------------------------------|
D---2h4-----------6-4-------6-4-------------------6-4-------6-4---|
A-6-------------------------------2-4h6---------------------------|
E-----------------------------------------------------------------|

Chorus
E-----00-------00-------00----000------|
B-----00-------00-------00----000------|
G-----22-------44-------22----222------|
D-----22-------44-------22----222------| x3
A--4--44----2--22----0--00----000------|
E--------------------------------------|

0 reply
PeytonManningl8 31 Apr 30, 2008 08:50 PM

Intro
E----------0---0------0---------|
B---0--------0------------0-----|
G-------------------------------|
D-2-4h6-----------6-4-------6-4-|
A-------------------------------|
E-------------------------------|

Verse
E----------0---0------0--------------------0---0------0-----------|
B---0--------0------------0---------0--------0------------0-------|
G-----------------------------------------------------------------|
D-2-4h6-----------6-4-------6-4-------------------6-4-------6-4---|
A---------------------------------2-4h6---------------------------|
E-----------------------------------------------------------------|

E----------0---0------0--------------------0---0------0-----------|
B---0--------0------------0---------0--------0------------0-------|
G-----------------------------------------------------------------|
D---2h4-----------6-4-------6-4-------------------6-4-------6-4---|
A-6-------------------------------2-4h6---------------------------|
E-----------------------------------------------------------------|

Chorus
E-----00-------00-------00----000------|
B-----00-------00-------00----000------|
G-----22-------44-------22----222------|
D-----22-------44-------22----222------| x3
A--4--44----2--22----0--00----000------|
E--------------------------------------|

guest
You may want to rate the tab now too:
select rating
Wanna post a correction for this tab? Suggest correction