Oops, an error
Loading. Please wait.

Dear Juliet - Never Change tab

19,001 views 1 this week
5 commentsread comments
1 2 3 4 5
x 4
add to favorites
×
Save as Personal and add changes to this tab that will be seen only by you. Learn more ›
×
You can save this tab as Personal to edit and correct it or add notes. All changes will be seen only by you. Learn more »
launch autoscroll
font size
0
reset
how to read this tab
guitar tuner
edit
Autoscroll
slow
fast
+/-
esc
set tempo
stop
Author
Difficulty
Yeah I did this by ear. Since I couldn't find tabs anywhere else.
but this is pretty accurate and in my opinion, it sounds close to the real song. I also 
lyrics at the bottom, so you can sing along. :D

It's a quite simple to play, and fun too.(:
Please go to WWW.MYSPACE.COM/DEARJULIET and listen to Chase Coy's music.
He has a fantastic voice, and great lyrics & guitar playing to go along.
He isn't signed by a record, but the more his music gets around, the higher chance he is 
be discovered!


e|------5---5-----5----5---5--5-------5-----5-----3---3--3----|
B|-------5---5-----5----5---5--5-------5-----5-----3---3--3---|
G|------------------------------------------------------------|
D|---------------------------------55---5-44--4-22--2---2--2--|   [x3]
A|--55----5---5--4---22---2--2--2-----------------------------|
E|------------------------------------------------------------|

and then..
e|--4--4--4----|
B|---5--5--5---|
G|-------------|
D|22---2--2--2-|
A|-------------|
E|-------------|

CHORUS
e|-----------5------5--------5------5-------------|
B|------------5------5--------5------5------------|
G|------------------------------------------------|
D|--------55----5---------------------------------|    [x4]
A|-----------------55--5--22----2--44--4----------|
E|------------------------------------------------|


Repeat intro/verse!


THE END!

---LYRICS---


If you hear this, wherever you are
Just know I need you here I need you near me now
You were brighter than the pale white moon,
reflecting in your eyes
So I guess It's no surprise I can't forget you
No matter what I do.


I will always carry you, in my heart
You'll always be my shooting star.
Autumn days will fade away, the memories will always stay the same
I'm hoping you will Never Change, don't ever change.


I just need to slow down for awhile
I'm missing your voice, smile, and the way you used to say,
"Stay with me until the daylight breaks..
No matter what it takes just say you'll stay, just say you'll stay."


I will always carry you, in my heart
You'll always be my shooting star.
Autumn days will fade away, the memories will always stay the same
I'm hoping you will Never Change, don't ever change.

            
            
Suggest correction
Creating personal tab
Creating personal tab
You can edit any tab online and save it as your Personal.

You can edit, replace or remove any tab part or add personal notes – all changes will be seen only by you.

Personal tabs can be accessed anytime from any device, even offline.
Learn more »
comments
print report bad tab
5 comments total. Showing first comments.
0 reply
kanarf 106 Feb 13, 2008 02:11 PM

this sounds really good.

i alos love him im probably the only guy tho

0 reply
zachtherunner 103 Dec 03, 2008 07:26 PM

well, kanarf, you aren't the only guy who loves his music.
and i'm going to put up a tab of this in the next few weeks,
or at least i'm going to try.
i haven't put up a tab like this before, but yours, i don't think,
is very accurate.
i'm really glad you put this up though!

0 reply
zachtherunner 103 Dec 04, 2008 10:57 AM

i got it up
http://www.ultimate-guitar.com/tabs/d/dear_juliet/never_change_tab.htm
that's the url.

guest
You may want to rate the tab now too:
select rating
Wanna post a correction for this tab? Suggest correction