Oops, an error
Loading. Please wait.

Decay - Angelmaker tab

1,444 views 30 this week
3 commentsread comments
1 2 3 4 5
x 4
add to favorites
×
Save as Personal and add changes to this tab that will be seen only by you. Learn more ›
×
You can save this tab as Personal to edit and correct it or add notes. All changes will be seen only by you. Learn more »
launch autoscroll
font size
0
reset
how to read this tab
guitar tuner
edit
Autoscroll
slow
fast
+/-
esc
set tempo
stop
-------------------------------------------------------------------------------
                             Decay - AngelMaker
-------------------------------------------------------------------------------

Tuning: Drop A

Acoustic Intro

(Tremolo pick this whole section)
e|---------------------------------------------------------------------------|
B|---------------------------------------------------------------------------|
G|---------------------------------------------------------------------------|
D|---------------------------------------------------------------------------|
A|-8------8-----8---8-9-6-----6---8-4-1---4-1---4---4-6-3-1-0-----1---3---3-4|
E|---9-6----9-6---9-------8-5---8-------2-----2---2-----------1-2---1---1----|
A|---------------------------------------------------------------------------|


HER CORPSE LIES SIX FEET UNDER!!!!


e|---------------------------------------------------------------------------|
B|---------------------------------------------------------------------------|
G|---------------------------------------------------------------------------|
D|---------------------------------------------------------------------------|
A|---------------------------------------------------------------------------|
E|-11-11-11-111-111--(x4)---1~---------------(x4)--------------------------------|
A|-11-11-11-111-111---------1~--1-111-1-1-1--------3b3b--------------------------------|

e|---------------------------------------------------------------------------|
B|---------------------------------------------------------------------------|
G|---------------------------------------------------------------------------|
D|---------------------------------------------------------------------------|
A|---------------------------------------------------------------------------|
E|-1---with the beat for the rest of the song--------------------------------|
A|-1-------------------------------------------------------------------------|

Feel free to comment any errors! 

:)
Suggest correction
Creating personal tab
Creating personal tab
You can edit any tab online and save it as your Personal.

You can edit, replace or remove any tab part or add personal notes – all changes will be seen only by you.

Personal tabs can be accessed anytime from any device, even offline.
Learn more »
comments
print report bad tab
3 comments total.
0 reply
mh241098 10 Apr 22, 2016 11:42 AM

A|-8------8-----8---8-9-6-----6-----6---6-8-4-----4-----4---4-6-3-1-0----
E|---9-6----9-6---9-------8-5---8-5---8-------6-2---6-2---6-----------1-2

A|-0-1-3-1-3-4-
E|-------------

0 reply
maggotromkaki 10 Jan 09, 2017 05:49 PM

You think it's drop A? I think it's drop A#

guest
You may want to rate the tab now too:
select rating
Wanna post a correction for this tab? Suggest correction