Oops, an error
Loading. Please wait.

Decending Beneath - Denying The Existence Of Life Bass Tab

535 views 1 this week
no commentswrite comment
1 2 3 4 5
please rate
add to favorites
launch autoscroll
font size
0
reset
guitar tuner
Autoscroll
slow
fast
+/-
esc
set tempo
stop
Help us to improve Ultimate-Guitar.com Take our survey!
×
Author
Difficulty
Tuning
intermediate
C G C F A D
Tune-Standard
Artist-Descending Beneath
Album-Denying the Existence of Life
Song-Whispers in shadows
(e-a-d-g-b-e)

theres no bass line to this song ist all keyboard with a drum and guitar ending
____________________________________________________________________________
Tune-Standard
Artist-Descending Beneath
Album-Denying the Existence of Life
Song-The Suffering

(intro/chorus)
----------------------------------------------          3-3-1-2-4-5=--|
----------------------------------------------          --------------|
----------------------------------------------          --------------|
----------------------------------------------          --------------|
----------------------------------------------          --------------|

(main riff 1)(play till lyrics end then finish)
------------------------------|
------------------------------|
--------------------------3/7-|
------------------1-1-3-2-----|
1111-3333-2-3-4-5-------------|

(Main riff 2)
---------------------------------------------------------------------------|
---------------------------------------------------------------------------|
---------------------------------------------------------------------------|
111111------111111------111111------111111------111111-----111111----------|
---------------------------------------------------------------------------|

(chorus)(play till lyrics end then finish)
(main riff 2)
(main riff 1)(play till lyrics end then finish)
(guitar 1 pick slide)(drum roll 4 5 seconds)
(chorus)(play till lyrics end then hold till drum solo)
(drum solo)
(pre-solo)-guitar 2
(solo)-guitar 1
(main rift 1)
(main rift 2)
(chorus)
____________________________________________________________________________
Tune-Standard
Artist-Descending Beneath
Album-Denying the Existence of Life
Song-I Walk (And Death Follows)

(intro/main riff 1)
-----------------------------------------------------------------------|
---------------------------------------------3=------------------------|
0-0-0-0-3-0-0-0-0-0-0-6p5-0-0-0-0-3-0-0-0-0-0---0-0-0-0-3=-0-0-0-0-5=--|
-----------------------------------------------------------------------|
-----------------------------------------------------------------------|

(main riff 2-play till lyrics end then finish playing)
3-2-1-4-2-4-3-2-5-1-2-4-3-4-1-2-4-5-4-3-4-2-1-00-|
-------------------------------------------------|
-------------------------------------------------|
-------------------------------------------------|
-------------------------------------------------|

(main riff 1)

(chorus)play till lyrics end then finish playing
33333-55555-33333-11111-33333-22222-|
------------------------------------|
------------------------------------|
------------------------------------|
------------------------------------|

(main riff 1)
(main riff 2)
(main riff 1)
(chorus)

(pre-solo)
3333-10p/1- repeat end with guitars
-----------|
-----------|
-----------|
-----------|

(solo)(guitar 1 only)

(chorus)
(main riff 1)
(main riff 2)
(main riff 1)
____________________________________________________________________________
Tune-Standard
Artist-Descending Beneath
Album-Denying the Existence of Life
Song-A Plague of Insubordination

(intro)x3
--11--------------------1111------------11------------|
------------------------------------------------------|
------------------------------------------------------|
------------------------------------------------------|
------------------------------------------------------|

(main riff 1)-guitar 1 technical
-----------------                ---------|
-----------------                ---------|
-----------------                ---------|
-----------------                ---------|
-----------------                ---------|

(main riff 2)
-----------------------------              ---------------------|
-----------------------------              ---------------------|
--11111111111111111111------- play 3 times ---------------------|
-----------------------------              ---------------------|
-----------------------------              ---------------------|

(chorus)repeat till lyrics end then finish playing
------------------------------------------------------------------|
------------------------------------------------------------------|
111111/222222/333333/444444/333333/444444/111111/222222/444444/222
------------------------------------------------------------------|
------------------------------------------------------------------|

(main riff 1)
(main riff 2)
(chorus)
(main riff 1)

(Pre-Solo)
1-0-1-0-3-3-2-1-0-1-0-1-0-3-3-2-1-0-------------------------------|
------------------------------------------------------------------|
------------------------------------------------------------------|
------------------------------------------------------------------|
------------------------------------------------------------------|

(solo)-guitar 1 part only

(main riff 1)
(main riff 2)
(Chorus)
(main riff 2)
(Outro)-guitar 1 only
____________________________________________________________________________
Tune-standard
Artist-Descending Beneath
Album-Denying the Existence of Life
Song- Denying the Existence of Life

(intro)
-----------------------------|
-----------------------------|
---------33-33-3h4-----------|
3========----------3========-|
-----------------------------|

(intro part 2)
-------3-1---4444-----00-----------------------------|
--00-3-----2------3-1----333-333-333-1-0-------2222--|
1----------------------------------------3-0-1-------|
-----------------------------------------------------|
-----------------------------------------------------|

(main riff/chorus)(play till main rift2)
123456-123456-123457-123456-123455-|
-----------------------------------|
-----------------------------------|
-----------------------------------|
-----------------------------------|

(main riff 2)
-------------------------------------------|
-------------------------------------1-2-3-|
----------------------------------00-------|
-------------------------------------------|
3==========5==========3==========----------|


(chorus)(play till the lyrics end the finish)
(main riff 2)
(main riff 1)
(main riff 2)
(chorus)(play till the lyrics end the finish)

(pre-solo)
6666666666666666-----------------6666666666666666-----------------------|
-----------------333-333-333-333------------------444-444-444-444-------|
------------------------------------------------------------------2-1-0-|
------------------------------------------------------------------------|
------------------------------------------------------------------------|

(solo)(1st guitar only)

(main riff 1)
(main riff 2)
(chorus)(play till the lyrics end the finish)
(intro part 2)
Suggest correction
Give kudos to tab author, rate the tab!
1 2 3 4 5
comments
print report bad tab
guest
You may want to rate the tab now too:
select rating
Wanna post a correction for this tab? Suggest correction