Oops, an error
Loading. Please wait.

Defaced - Keiths A Fing Legend Tab

4 views 1 this week
no commentswrite comment
1 2 3 4 5
3 more votes to show rating
add to favorites
launch autoscroll
font size
0
reset
how to read this tab
guitar tuner
Autoscroll
slow
fast
+/-
esc
set tempo
stop
Help us to improve Ultimate-Guitar.com Take our survey!
×
Author
Difficulty
Tuning
intermediate
D A D G B E
About this tab version
This song was written by me and my friends for our VET music class. It's about our music teacher Keith and it's a good song so I thought I would upload the tab. Enjoy I guess. Was this info helpful? Yes No
[Intro]

e|---------------------------------------|
B|---------------------------------------|
G|---------------------------------------|
D|---------------------------------------|
A|-----7-8-9-7-----9-8-7-----------8-7-5-|
D|-9-9---------7-7-------5-5---5-5-------|(x2)


[Verse]

e|------------------------------------------------------|
B|------------------------------------------------------|
G|------------------------------------------------------|
D|---------------------------------------------------b7-|
A|------------------------9-8-7-------------------------|
D|-9-9---7-7---5-5---5-5-------9-9---7-7---5-5---5-5----| 

e|------------------------------------------------------------------------------|
B|------------------------------------------------------------------------------|
G|------------------------------------------------------------------------------|
D|-----b7-----b7----------------------b7-----b7---5---5-5-5-5-5-5-5-5-7-7-7-7-7-|
A|-------------------------9-8-7------------------5---5-5-5-5-5-5-5-5-7-7-7-7-7-|
D|-9-9----7-7----5-5---5-5--------9-9----7-7----5-5---5-5-5-5-5-5-5-5-7-7-7-7-7-|
                                                  PM  * * * * * * * * * * * *

[Chorus]

e|-----------------------------------------------|
B|-----------------------------------------------|
G|-----------------------------------------------|
D|-9-9-9-9-9-7-7-7-7-7-7-5-5-5-5-5-5-5-5-5-5-5-5-|
A|-9-9-9-9-9-7-7-7-7-7-7-5-5-5-5-5-5-5-5-5-5-5-5-|
D|-9-9-9-9-9-7-7-7-7-7-7-5-5-5-5-5-5-5-5-5-5-5-5-|(x3)

e|-----------------------------|
B|-----------------------------|
G|-----------------------------|
D|-9-9-9-9-9-9-7-7-7-7-7-7-x-5-|
A|-9-9-9-9-9-9-7-7-7-7-7-7-x-5-|
D|-9-9-9-9-9-9-7-7-7-7-7-7-x-5-|


[Solo]

e|-----------------------------------------------------------------------|
B|-----------------------------------------------------------------------|
G|-----b7-----7---------------------b7-----------------------------------|
D|--------------9-7--------------------9-8-7-------7---------------------|
A|-------------------------------------------9-8-7---9-7-9-8-7---5-7-8-5-|
D|-9-9----9-9-------7-7---5-5---9-9--------------------------------------|

e|---------------|
B|---------------|
G|-b7---b9---b11-|
D|---------------|
A|---------------|
D|---------------|

[Outro] 


e|---------------------------------------|
B|---------------------------------------|
G|---------------------------------------|
D|---------------------------------------|
A|-----7-8-9-7-----9-8-7-----------8-7-5-|
D|-9-9---------7-7-------5-5---5-5-------|(x2)

At the End instead of playing the 5th note on the A string as a note just
just bar it and let it ring out.



************************************

| b   Bend
| PM  Palm mute
| x   Dead note

************************************
Suggest correction
Give kudos to tab author, rate the tab!
1 2 3 4 5
comments
print report bad tab
guest
You may want to rate the tab now too:
select rating
Wanna post a correction for this tab? Suggest correction