Oops, an error
Loading. Please wait.

Derrick Comedy - Emo Song Tab

version 2
version 2

Whole song

22 views 1 this week
no commentswrite comment
1 2 3 4 5
3 more votes to show rating
add to favorites
launch autoscroll
font size
0
reset
how to read this tab
guitar tuner
×
Best way to learn
"Derrick Comedy - Emo Song"
Autoscroll
slow
fast
+/-
esc
set tempo
stop
Author
Difficulty
About this tab version
This is a different version. Was this info helpful? Yes No
Key of G

     C               B               A               B
e|-------------------------------------------------------------------|
B|-------------------------------------------------------------------|
G|-------------------------------------------------------------------| x2
D|-------------------------------------------------------------------|
A|---3---3---3---3---2---2---2---2---0---0---0---0---2---2---2---2---|
E|-3---3---3---3---3---3---3---3---3---3---3---3---3---3---3---3-----|

     F#/Gb           E               D               E
e|-------------------------------------------------------------------|
B|-------------------------------------------------------------------|
G|-------------------------------------------------------------------| x2
D|---4---4---4---4---2---2---2---2---0---0---0---0---2---2---2---2---|
A|-------------------------------------------------------------------|
E|-3---3---3---3---3---3---3---3---3---3---3---3---3---3---3---3-----|
Suggest correction
Give kudos to tab author, rate the tab!
1 2 3 4 5
comments
print report bad tab
guest
You may want to rate the tab now too:
select rating
Wanna post a correction for this tab? Suggest correction