Oops, an error
Loading. Please wait.

Descending Beneath - Denying The Existence Of Life Tab

version 1
version 1

Album

Whole song

476 views 1 this week
no commentswrite comment
1 2 3 4 5
please rate
add to favorites
launch autoscroll
font size
0
reset
how to read this tab
guitar tuner
Autoscroll
slow
fast
+/-
esc
set tempo
stop
Help us to improve Ultimate-Guitar.com Take our survey!
×
Author
Difficulty
Tuning
intermediate
C G C F A D
Tune-Drop C(C-G-C-F-A-D)
Artist-Descending Beneath
Album-Denying the Existence of Life
Song-Whispers in Shadows

This song is mostly keyboard but with a drum and guitar entrance at the end
after a slow drum roll for 10 seconds guitars come in

(guitar 1)
--------------------------------------------------------|
1-0-----------------------------------------------------|
----1-0-------------------------------------------------|
--------1-0-----------------33-4-5-4--------------------|
------------1-0-1111-3-3h4b----------3-1111-0========---|
--------------------------------------------0========---|

(guitar 2)
--------------------------------------------------------|
--------------------------------------------------------|
--------------------------------------------------------|
----------------1111------------------------------------|
1-0-1-0-1-0-1-0-1111-5-5----55-6-7-6-5-1111-0========---|
1-0-1-0-1-0-1-0-1111-5-5----55-6-7-6-5-1111-0========---|
____________________________________________________________________________
Tune-Drop C
Artist-Descending Beneath
Album-Denying the Existence of Life
Song-The Suffering

(intro/chorus))
----------------------------------------------          --------------|
----------------------------------------------          --------------|
 -------15---------------------15-------------          --------------|
--12-0----15-0-14-0-12---12-0----15-0-14-0-12b repeatx4 ------9-------|
0======================0======================          9-9-7---8-8b--|
----------------------------------------------          --------------|

(main rift 1)
----------------|
----------------|
----------------| (play till lyrics end then finish)
----6/5/4/3/2/1-|
6---5/4/3/2/1/0-|
4x8-------------|

(Main rift 2)
---------------------------------------------------------------------------|
--------------------------------------------------------------------7------|
----------------------------------------------------------------------6----|
------------------------------------------------------------------------5w-|
---------------------------------------------------------------------------|
000000-1/13-000000-1/13-000000-13/1-000000-13/1-000000-8b-000000-4b--------|

(chorus)(play till lyrics end then finish)
(main rift 2)
(main rift 1)(play till lyrics end then finish)
(pick slide)(drum roll 4 5 seconds)
(chorus)(play till lyrics end then hold till drum solo)
(drum solo)

(pre-solo)
7-6-5w-------9-8-7w----------------------------------------------------------|
-------77777--------99999----------------------------------------------------|
--------------------------------------------------7h8-99999p8----------------|
--------------------------55555/77777/99999/77777-------------1/3w========---|
--------------------------55555/77777/99999/77777-------------1/3w========---|
--------------------------55555/77777/99999/77777-------------1/3w========---|

(solo)the whole solo is finger tapping exept the bends and the last 3 notes
13h14p13h14h15h16p15/9h10p9p8/5h6p5h6p5--------------------|
-----------------------------------------------------------|
----------------------------------------5b5b5b5b5b-6w=====-|
-----------------------------------------------------------|
-----------------------------------------------------------|
-----------------------------------------------------------|

(solo cont.)
--------------------------------------------------------|
14p12h15p12h14p12h15p12-17p13h18p13h17p13h18p13-7-------|
--------------------------------------------------6-----|
----------------------------------------------------5w--|
--------------------------------------------------------|
--------------------------------------------------------|

(main rift 1)                                  0====================
(main rift 2)                                  0====================
(chorus)after lyrics end play 8 times end with 0====================
                                               0====================
                                               0====================
                                               0====================
____________________________________________________________________________
Tune-Drop C
Artist-Descending Beneath
Album-Denying the Existence of Life
Song-I Walk (And Death Follows)
The whole song is distorted

(intro/main riff 1)
(guitar 1)
-------------------------------------------------------------|
-------------------------------------------------------------|
-------------------------------------------------------------|
-------------------------------------------------------------|
------------------------------------------0-0-0-0------------|
--00-3h4p3-0000-3h4p3-00-000-000-000-000-0-0-0-0--3333-3h4p3-|
                    pm.. ... ... ... ... ........

(guitar 2)(jus repeat and end with guitar 1)
-----------------------------------------------------------------------|
-----------------------------------------------------------------------|
-----------------------------------------------------------------------|
-----------------------------------------------------------------------|
---------------------------------------------3b------------------------|
0-0-0-0-3-0-0-0-0-0-0-6p5-0-0-0-0-3-0-0-0-0-0---0-0-0-0-3b-0-0-0-0-5b--|

(main riff 2-play till lyrics end then finish playing)
(guitar 1)
----------------------------------------------------------------------------|
----------------------------------------------------------------------------|
----------------------------------------------------------------------------|
----------------------------------------------------------------------------|
----------------------------------------------------------------------------|
--11111111111111110000000000000000333333333333333322222222222222221111111111
fm..........................................................................

(guitar 2)
---------------------------------------------------------------------------|
---------------------------------------------------------------------------|
---------------------------------------------------------------------------|
---------------------------------------------------------------------------|
3333333333333333----------------555555555555555544444444444444443333333333-|
11111111111111110000000000000000333333333333333322222222222222221111111111-
              pm................

(main riff 1)

(chorus)play till lyrics end then finish playing
(guitar 1)                                                  /repeat 4 times\
------------------------------------------------------------------------|
------------------------------------------------------------------------|
4444-6666-7777-9999-4444-6666-7777-9999-4444-6666-7777-9999-4-6-7-9-7-6-|
------------------------------------------------------------------------|
------------------------------------------------------------------------|
------------------------------------------------------------------------|

-------|
-------|
6h7p6b-
-------|
-------|
-------|

(guitar 2)
------------------------------------|
------55555-77777-------------------|
------33333-55555-------------------|
33333-33333-55555-77777-55555-33333-|
33333-------------55555-33333-33333-|
33333-------------55555-33333-33333-|

(main riff 1)
(main riff 2)
(main riff 1)
(chorus)

(pre-solo)
(both guitars)
-----------------------|
-----------------------|
-----------------------| repeat
6p0-7p0-8p0-7p0--------| 10 times
4p0-5p0-6p0-5p0--------|
-----------------------|

(solo)
(guitar 1)
---------------------9-10-11-10-9--9-10-11-10-9---9-10-11-10-9h10p9h10p9h10-|
8b-7b--------7h8p7-9--------------9--------------9--------------------------|
------7b---7----------------------------------------------------------------|
---------7------------------------------------------------------------------|
----------------------------------------------------------------------------|
----------------------------------------------------------------------------|

(chorus)
(main riff 1)
(main riff 2)
(main riff 1)
____________________________________________________________________________
Tune-Drop c
Artist-Descending Beneath
Album-Denying the Existence of Life
Song-A Plague of Insubordination

(intro)x3
(guitar 1)
------------------------------------------------------|
------------------------------------------------------|
-------9-----8-----7-----------9-8-----------7--------|
-----7---8-6---7-5---6w------8-----9/8b----8---7-6b---|
------------------------------------------------------|
--00--------------------0000------------00------------|
pm..                    ....            ..

(guitar 2)
------------------------------------------------------|
------------------------------------------------------|
------------------------------------------------------|
------------------------------------------------------|
--33--------------------3333------------33------------|
--11--------------------1111------------11------------|

(main riff 1)
(guitar 1)
-----------------                ---------|
-----------------                ---------|
-----------------                ---------|
-----------------                ---------|
-----------------                ---------|
000000/pickslide\ repeat 4 times 000000-5b repeat 3 times /pickslide\

(guitar 2)
-----------------                ---------|
-----------------                ---------|
-----------------                ---------|
-----------------                ---------|
-----------------                ---------|
-----------------                ---------|

(main riff 2)repeat till lyrics end then finish playing
(guitar 1)
-----------------------------              ---------------------|
-----------------------------              ---------------------|
-----------------------------              555555555/66666666w--|
----------------------------- play 3 times ---------------------|
-----------------------------              ---------------------|
--00000000000000000000-0000/5              ---------------------|
pm....................

(guitar 2)
-----------------------------              ---------------------|
-----------------------------              ---------------------|
-----------------------------              ---------------------|
----------------------------- play 3 times ---------------------|
--33333333333333333333-44h7p6              ---------------------|
--11111111111111111111-------              ---------------------|

(chorus)repeat till lyrics end then finish playing
(guitar 1)
-------------------------------------------------------------------|
-------------------------------------------------------------------|
------------------------------------------------4------------------|
-----------------------------------------------3-3-----------------|
6-6-5-3-4-6-6-5-3-4-7-7-6-4-5-7-7-6-4-5-------2---2----------------|
4-4-3-1-2-4-4-3-1-2-5-5-4-2-3-5-5-4-2-3-0000-1-----1-00-000000-111-|
                                      pm....         .. ......

(guitar 2)
------------------------------------------------------------------|
------------------------------------------------------------------|
------------------------------------------------------------------|
666666/777777/888888/999999/888888/999999/666666/777777/999999/777|
444444/555555/666666/777777/666666/777777/444444/555555/777777/555|
------------------------------------------------------------------|

(main riff 1)
(main riff 2)
(chorus)
(main riff 1)

(Pre-Solo)
(guitar 1)
-------------------------------------------------------------|
------------------------------------6-6-7-5-6w---------------|
-------------------------------------------------------------|
7-0-7-0-9-9-8-7-0-7-0-7-0-9-9-8-7-0------------0==========---|
-------------------------------------------------------------|
-------------------------------------------------------------|/pickslide\

(guitar 2)
-------------------------------------------------------------|
-------------------------------------------------------------|
-------------------------------------------------------------|
-------------------------------------------------------------|
1-0-1-0-3-3-2-1-0-1-0-1-0-3-3-2-1-0--------------------------|
1-0-1-0-3-3-2-1-0-1-0-1-0-3-3-2-1-0--------------------------|

(solo)
(guitar 1 only)
                         /               finger tap                 \
-----------------------------------------------------------------------------|
-----------------------------------------------------------------------------|
7h8p7-8-9-8-7h8p7---------------12p10h12p10h12p10h12p10h13p10h13p10h13p10h13-|
-----------------10-9-8-7-7h8p7----------------------------------------------|
-----------------------------------------------------------------------------|
-----------------------------------------------------------------------------|

(Solo cont)
/              finger tap                     \                     /repeat 3 times\
------------------------------------------------13131313131313131313------------5555-|
---------------------------------------------------------------------5----------5555-|
12p10h12p10h12p10h12p10h11p10h11p10h11p10h11p10------------------------5--------5555-|
-------------------------------------------------------------------------5-5h6p5-----|
-------------------------------------------------------------------------------------|
-------------------------------------------------------------------------------------|

(main riff 1)
(main riff 2)
(Chorus)
(main riff 2)

(Outro)
(guitar 1 only)
-------                --------------------|
-------                --------------------|
--9----                --------------------|
----7-8 repeat 3 times 0================---|
7------                --------------------|
-------                --------------------|
____________________________________________________________________________
Tune-Drop C
Artist-Descending Beneath
Album-Denying the Existence of Life
Song- Denying the Existence of Life

(intro)
(guitar 1)
-------------------------------|
-------------------------------|
-------------------------------|
-------------------------------| repeat 3 times
-------------------------------|
7xxxxxxxx7/6-6/5-5h6-7xxxxxxxx-|

(guitar 2)
--------------------------------|
--------------------------------|
--------------------------------|
--------------------------------|
6-00000000-----------6----------|
4-00000000-----------4-00000000-|
pm........           pm........

(intro part2)
(guitar 1)
-----------------------------------------------------|
------------------------------------------------7----| ]
----------------------------------------------5---5--| ]repeat x3
--------------------------------------------5--------| ]
-----------------------------------------------------|
--0000000000000000-5-0-5-0-0000000000000000----------|
pm................ . . . . ................

(guitar 2)
-----------------------------------------------------|
-----------------------------------------------------|
-------------------6-5-6-5---------------------------|
-------------------4-3-4-3---------------------------|
--5555555555555555---------5555555555555555----------|
--3333333333333333---------3333333333333333----------|
fm................ . . . . ................

(main riff/chorus)(play till main rift2)
(guitar 1)
-------------------------------------------------------|
-------------------------------------------------------|
-------------------------------------------------------|
-------------------------------------------------------|
33-7-6-5-4-33-7-6-5-4-33-7-6-5-4-33-7-6-5-4-33-7-6-5-4-|
11-5-4-3-2-11-5-4-3-2-11-5-4-3-2-11-5-4-3-2-11-5-4-3-2-|

(guitar 2)
555556-555556-555557-555556-555555-|
555555-555555-555555-555555-555555-|
333333-333333-333333-333333-333333-|
333333-333333-333333-333333-333333-|
000000-000000-000000-000000-000000-|
000000-000000-000000-000000-000000-|

(main riff 2)
(guitar 1)
--------------------------------------------------------------2-3-4w--|
666666-------------5-5-5-4-3-----7-7-7-6-5-----7p6p5h6----------------|
-------7h8p7/6-0-0-----------0-0-----------0-0---------6h7p6b---------|
----------------------------------------------------------------------|
----------------------------------------------------------------------|
----------------------------------------------------------------------|

(guitar 2)
---------------------------------------------------------------------|
---------------------------------------------------------------------|
---------------------------------------------------------------------|
---------------------------------------------------------------------|
1------1---------------------1-----------3-4-5-6-4-5-6-7-1-----------|
1-1111-1-1111-1111-1111-1111-1-1111-1111-1-2-3-4-2-3-4-5-1-1111-1111-|

(chorus)(play till the lyrics end the finish)
(main riff 2)
(main riff 1)
(main riff 2)
(chorus)(play till the lyrics end the finish)

(pre-solo)
(guitar 1)
-------------------------------------------------------------------|
-------------------------------------------------------------------|
-----------------------------------------------5-4-3-2-1-----------|
---------------------------------------------------------5-4-3-2-1-|
---------------------------------------------------------5-4-3-2-1-|
xxxxxxxxxxxxxxxx-1-1-1h2p1-1-1-3h4p3-1-1-1h2p1-----------5-4-3-2-1-|

(guitar 2)
---------------------------------------------------------------------|
-------------------------------------------------7\6\5\4\3-----------|
-------------------------------------------------5\4\3\2\1-----------|
---------------------------------------------------------------------|
--0000000000000000-3-3-3/4\3-3-3-5/6\5-3-3-3/4\3---------------------|
--0000000000000000-1-1-1/2\1-1-1-3/4\3-1-1-1/2\1---------------------|
pm................

(solo)
(guitar 1)
--------------------------------------------------------------------|
--------------------------------------------------------------------|
------------------10h11p10h11p10h11p10/9/8/7/1----------------------|
5-5-5-5-5h6------------------------------------8h9p8p7h8h9p8p7p6p5w-|
------------99999---------------------------------------------------|
--------------------------------------------------------------------|pickslide

(main riff 1)
(main riff 2)
(chorus)(play till the lyrics end the finish)
(intro part 2)
Suggest correction
Give kudos to tab author, rate the tab!
1 2 3 4 5
comments
print report bad tab
guest
You may want to rate the tab now too:
select rating
Please do not post tabs as comments. Select "correction" instead!