Oops, an error
Loading. Please wait.

Dexter - Dexter Theme Tab

85,795 views 30 this week
no commentswrite comment
1 2 3 4 5
worth learning
x 5
add to favorites
launch autoscroll
font size
0
reset
how to read this tab
guitar tuner
Tab Pro tools
  • play this tab
  • loop segment
  • change instrument
  • show fretboard
  • metronome
×
Best way to learn
"Dexter - Dexter Theme"
Autoscroll
slow
fast
+/-
esc
set tempo
stop
Difficulty
novice
tuning: standard 
tabbed by mike m
this is just the basics to the tune as there is a lot going on in the actual one



e|-12-12-12-12-11---------------------------------------------|
B|----------------13-12---------------------------------------|
G|----------------------12-12-12-12-11-10-9-------------------|
D|------------------------------------------------------------|
A|------------------------------------------------------------|
E|------------------------------------------------------------|

e|------------------------------------------------------------|
B|-----this is the bass line heard before the tune------------|
G|------------------------------------------------------------|
D|-----(7)--(9)-----------------------------------------------|
A|--------------(10)------------------------------------------|
E|-0-7---------------0-7-3-0-----0-7--------------------------|


tune
e|-----7-7-6-7--7-8----8-8-7-8---8---10-10-9-10-------7-------|
B|--5----------------6-------------8--------------------------|
G|------------------------------------------------------------|
D|------------------------------------------------------------|
A|------------------------------------------------------------|

e|-/12--7-7-/12-7-7---8--8--8-------7h8-8--8----9--9---9------|
B|------8-8-----8-8------10-10--10-----10-10------11--11------|
G|------9-9-----9-9------9--9-----------9---9-------9--9------|
D|------9-9-----9-9------7--7-----------7---7------11--11-----|
A|------7-7-----7-7------7--7-----------7---7-------9--9------|
E|------7-7-----7-7------7--7-----------7---7-------9--9------|


e|--9-9--9---/12-11--9--11s14\------7-7-7---------------------|
B|----11-11-------------12s16\------8-8-8---------------------|
G|----9--9--------------------------9-9-9(repeat chord)-------|
D|----11-11-------------------------9-9-9---------------------|
A|----9--9--------------------------7-7-7---------------------|
E|----9--9--------------------------7-7-7---------------------|

e|-------------->5--------------------------------------------|
B|--harmonics--->5--(to imitate the chime)--------------------|
G|------------------------------------------------------------|
D|------------------------------------------------------------|
A|------------------------------------------------------------|
E|------------------------------------------------------------|
comments
print report bad tab
I want to post or [tab]
guest
You may want to rate the tab now too:
select rating
Please do not post tabs as comments. Select "correction" instead!