Oops, an error
Loading. Please wait.

Dicks In The Sun - Dirty Toe Tab

385 views 1 this week
no commentswrite comment
1 2 3 4 5
please rate
add to favorites
launch autoscroll
font size
0
reset
how to read this tab
guitar tuner
Tab Pro tools
  • play this tab
  • loop segment
  • change instrument
  • show fretboard
  • metronome
×
Best way to learn
"Dicks In The Sun - Dirty Toe"
Autoscroll
slow
fast
+/-
esc
set tempo
stop
Contributor
		Dicks in the sun - Dirty Toe album


	  1.Pookie

	  2.She is naked

	  3.Dirty toe

	  4.Pickle juice

	  5.The toilet story

	  6.Bird Turd

	  7.Poison bee sting

	  8.Bestest

	  9.Worstest

	 10.The talk
                           1. Pookie

Intro
|-----------------|
|-----------------|
|-----------------|
|---6-6-7---6-5-4-|
|-7-4-4-5-7-4-3-2-|
|-5-------5-------|

verse play 4 times
|---------------------|
|---------------------|
|---------------------|
|---6-6---6-6---6-6---|
|-7-6-6-7-6-6-7-6-6-7-|
|-5-----5-----5-----5-|

solo
|-------6-6-6-6-9-9-9-9-9-5-5-5-5-8-8-8-8-8----------6-6-6-6-9-9-9-9-----|
|------9-9-9-9-9-6-6-6-6-6-8-8-8-8-8-5-5-5-5--------9-9-9-9-9-6-6-6-6----|
|8-8-8----------------------------------------8-8-8-------------------8--|
|------------------------------------------------------------------------|
|------------------------------------------------------------------------|
|------------------------------------------------------------------------|


                           2. She is naked
Drop D
Intro
|--------------------------------7--6--7--8-----------|
|--------------------------------7--6--7--8-----------|
|--------------------------------7--6--7--8-----------|
|-7--7-8---0-7-6--5--6-7----7--7--6--7--8---8-0-0-7-7-|
|-7--7-8----------5--6---8--7--7--6--7--8---8---------|
|-7------7---7-6--5----7-8--7--7--6--7--8---------7-7-|

verse play 3 times
|-----------------------------------|
|-----------------------------------|
|-----------------------------------|
|-7-8-0-0-7-7-6-5--6-7-6-5--6-7-6-5-|
|-7-8-----------5--6-----5--6-----5-|
|---------7-7-6-5----7-6-5----7-6-5-|

verse pplay 20 times
|------------------------------------|
|------------------------------------|
|------------------------------------|
|-6-7-6-5--6-7-6-5--6-7-6-5--6-7-6-5-|
|-6-----5--6-----5--6-----5--6-----5-|
|---7-6-5----7-6-5----7-6-5----7-6-5-|


                           3.Dirt on the toe

Intro PLAY 5x
|-----------------------------------------------------------------------|
|-----------------------------------------------------------------------|
|-----4--------------------------------------------4--------------------|
|-2-4---5---------------6-----4-----------6--2-2-4---5-------------6--2-|
|---------2-4-----4---0---2-4---5-----4-4--------------2-4-----4-4------|
|-------------2-4---5-------------2-4----------------------2-4----------|

verse PLAY 1x
|------------------------------------|
|------------------------------------|
|-----5------------------------------|
|-2-4------6-2-2-4---------------4---|
|------2-4---------0-----4---2-4---5-|
|--------------------2-4---5---------|

verse play 5x
|-----------------------------------------------------------------------|
|-----------------------------------------------------------------------|
|-----4--------------------------------------------4--------------------|
|-2-4---5---------------6-----4-----------6--2-2-4---5-------------6--2-|
|---------2-4-----4---0---2-4---5-----4-4--------------2-4-----4-4------|
|-------------2-4---5-------------2-4----------------------2-4----------|

chorus play 1x
|------------------------------------|
|------------------------------------|
|-----5------------------------------|
|-2-4------6-2-2-4---------------4---|
|------2-4---------0-----4---2-4---5-|
|--------------------2-4---5---------|


verse play 5x
|-----------------------------------------------------------------------|
|-----------------------------------------------------------------------|
|-----4--------------------------------------------4--------------------|
|-2-4---5---------------6-----4-----------6--2-2-4---5-------------6--2-|
|---------2-4-----4---0---2-4---5-----4-4--------------2-4-----4-4------|
|-------------2-4---5-------------2-4----------------------2-4----------|

chorus play 1x
|------------------------------------|
|------------------------------------|
|-----5------------------------------|
|-2-4------6-2-2-4---------------4---|
|------2-4---------0-----4---2-4---5-|
|--------------------2-4---5---------|

verse play 5x
|-----------------------------------------------------------------------|
|-----------------------------------------------------------------------|
|-----4--------------------------------------------4--------------------|
|-2-4---5---------------6-----4-----------6--2-2-4---5-------------6--2-|
|---------2-4-----4---0---2-4---5-----4-4--------------2-4-----4-4------|
|-------------2-4---5-------------2-4----------------------2-4----------|

chorus play 1x
|------------------------------------|
|------------------------------------|
|-----5------------------------------|
|-2-4------6-2-2-4---------------4---|
|------2-4---------0-----4---2-4---5-|
|--------------------2-4---5---------|

outro
|-----------------------------------------------------------------------|
|-----------------------------------------------------------------------|
|-------------4---------------------------------------------------------|
|-----3-3-2-4---5---------6-2-4-----------------------------------------|
|-2-4-------------0-----0-------2-4-------------------------------------|
|-------------------2-4-------------2-4-2-4--2-4---2--4----2---4-----2--|

                           4.Pickle juice
intro10x
|------------------------------|
|------------------------------|
|-3-4-4--------4-----3-4-2-----|
|-3-4-4--3-5-3-4--x--3-4-2-2-x-|
|-1-2-2--3-5-3-2--x--1-2-0-2-x-|
|--------1-3-1----x--------0-x-|
verse6x
|---------------------------|
|---------------------------|
|-3-----3-4-------4-2-3-3---|
|-3-5-4-3-4-x-2-3-4-2-3-3-x-|
|-1-5-4-1-2-x-2-3-2-0-1-1-x-|
|---3-2-----x-0-1---------x-|
chorus1x
|-------------------------------------------------------|
|-------------------------------------------------------|
|-3--4-4-----------4--x--x---3---4--2----x----x-------x-|
|-3--4-4---3--5--3-4--x--x---3---4--2-2--x----x-------x-|
|-1--2-2---3--5--3-2--x--x---1---2--0-2--x----x-------x-|
|----------1--3--1----x--x------------0--x----x-------x-|

                           5. The toilet story
the verse is all bass
Verse1

chorus PLAY 5x
----------------|
----------------|
----------------|
-3-3--4--6-6--9-|
-3-3--4--6-6--9-|
-1-1--2--4-4--7-|

Verse

chorus PLAY 5x
----------------|
----------------|
----------------|
-3-3--4--6-6--9-|
-3-3--4--6-6--9-|
-1-1--2--4-4--7-|


                           6.Bird turd
intro\verse10x
|--------------------------------|
|--------------------------------|
|--------------------------------|
|--------------------------------|
|-3/4-4-0-3-5-3-4-2-0--3-4-2-2-x-|
|-1/2-3-0-1-3-1-2-0-0--1-2-0-2-x-|

chorus6x
|---------------------------|
|---------------------------|
|---------------------------|
|-3-5-----4-0-----4-2-3-3---|
|-1-3-4-4-2-0-2-3-2-0-1-1-0-|
|-----2-2-----0-1---------0-|


                           7.Poison Bee sting
intro play 1 time
-----------------------------|
-----------------------------|
-----5-----7--7---6-7-6------|
--4--5--7--7--7---6-7-6------|
--4--4--7--5--5---4-5-4-4--4-|
--0-----5-----0---------2--2-|

verse play 13 times
-----------------------|
-----------------------|
-5-7-6--------5---7--7-|
-5-7-6-7-7-6--5-7-7--7-|
-3-5-4-5-5-4--3-5-5--5-|
-------x-x-x----x------|

chorus play 5 times
----------------------------|
----------------------------|
-----5-----7--7---6-7-6-----|
--5--5--7--7--7---6-6-7-6-6-|
--4--4--6--6--6---5-5-6-5-5-|
--0-----0-----0---0-----0-0-|

solo play 8x
-----7-7-----------6-6-|
-----7-7-7-6-------5-6-|
-4-4-------------6-----|
-0-----------0-0-------|
-----------------------|
-----------------------|
comments
We did not receive enough feedback on this tab! Please rate:
print report bad tab
1 2 3 4 5
I want to post or [tab]
guest
You may want to rate the tab now too:
select rating
Please do not post tabs as comments. Select "correction" instead!