Oops, an error
Loading. Please wait.

Diego Verdager - Voy A Conquistarte Tab

2,828 views 3 this week
no commentswrite comment
1 2 3 4 5
please rate
add to favorites
launch autoscroll
font size
0
reset
how to read this tab
guitar tuner
Tab Pro tools
  • play this tab
  • loop segment
  • change instrument
  • show fretboard
  • metronome
×
Best way to learn
"Diego Verdager - Voy A Conquistarte"
Autoscroll
slow
fast
+/-
esc
set tempo
stop
Contributor
Difficulty
intermediate
Song: Voy a Conquitstarte
Artist: Diego Verdager
Album: Mexicano hasta las Pampas


(Riff #1)
INTRO: Am   F   G7   C   E   Am   F   G7   C


              C                   Am
Voy a conquistarte de una vez te digo
              F                           G7
Pues ya me canse de que me quieras como amigo nada mas
              C                     Am
Voy a conquistarte de una vez te informo
               F                            G7
Pues ya comprendí que si no lo hago me trastorno

 E                         Am (Riff #2)
Voy a derretir todos tus hielos
  E                         Am
Voy a conseguir que sientas celos
  F           G7           C      Am
Cuando no me tengas  a tu lado
  F           G7             C
Entonces sabrás que lo he logrado


              C                     Am
Voy a conquistarte de una vez te advierto
               F                     G7
Declaro que te amo y es a corazón abierto
              C                   Am
Voy a conquistarte de una vez por todas
           F                        G7
Vamos a tener la mas mentada de las bodas


 E                         Am (Riff #2)
Voy a provocar tantas envidias
 E                       Am
y será envidia de la buena
 F             G7            C     Am
y hasta que la muerte nos separe
 F         G7              C
será bendición también condena


(Riff #1)
INTRO: Am   F   G7   C   E   Am   F   G7   C


              C                     Am
Voy a conquistarte de una vez te advierto
               F                     G7
Declaro que te amo y es a corazón abierto
              C                   Am
Voy a conquistarte de una vez por todas
           F                        G7
Vamos a tener la mas mentada de las bodas


 E                         Am (Riff #2)
Voy a provocar tantas envidias
 E                       Am
y será envidia de la buena
 F             G7            C   Am
y hasta que la muerte nos separe
 F         G7              C
Será bendición también condena
 F             G7            C   Am
y hasta que la muerte nos separe
 F         G7              C
Será bendición también condena


(Riff #3)
OUTRO: Am   F   G7   C


----------------------------------------------------------------------------
 */RIFFS/*

Riff #1
 INTRO
               Am               F        G               C
|--8p7p5-8p7p5-----8p7p5-8p7p5-10----8-8-7h8p7-5h7p5----------|
|--------------5-------------------------------------8-6-5----|
|-------------------------------------------------------------|
|-------------------------------------------------------------|
|-------------------------------------------------------------|
|-------------------------------------------------------------|
 
   E                       Am                   F        G               C
|------------7-----7-----7-----8------8------8-10---10-8-7------7h8p7-10-8--|
|---------8h9---8h9---8h9--9h10---9h10---9h10---------------10--------------|
|---9-9-9-------------------------------------------------------------------|
|---------------------------------------------------------------------------|
|---------------------------------------------------------------------------|
|---------------------------------------------------------------------------|


Riff #2
 Chorus

Voy a derretir todos tus hielos....                      Voy a conseguir...
  Voy a provocar tantas envidias...                      Y sera envidia... 
                          Am                            E
|---------------------------0-0-0--8h10p8-7--5h7hp5---------|
|---------------------------------------------------8-6-5---|
|-----------------------------------------------------------|
|-----------------------------------------------------------|
|-----------------------------------------------------------|
|-----------------------------------------------------------|


Riff #3
 Outro

también condena...  
            C               Am               F            G7           C
|----------------8p7p5-8p7p5-----8p7p5-8p7p5-10---10-8-7------7h8p7-10-8---|
|----------------------------5----------------------------10---------------|
|--------------------------------------------------------------------------|
|--------------------------------------------------------------------------|
|--------------------------------------------------------------------------|
|--------------------------------------------------------------------------|
comments
We did not receive enough feedback on this tab! Please rate:
print report bad tab
1 2 3 4 5
I want to post or [tab]
guest
You may want to rate the tab now too:
select rating
Please do not post tabs as comments. Select "correction" instead!