Oops, an error
Loading. Please wait.

Dilemma Uncovered - Use tab

105 views 1 this week
no commentswrite comment
1 2 3 4 5
2 more votes to show rating
add to favorites
×
Save as Personal and add changes to this tab that will be seen only by you. Learn more ›
×
You can save this tab as Personal to edit and correct it or add notes. All changes will be seen only by you. Learn more »
launch autoscroll
font size
0
reset
how to read this tab
guitar tuner
edit
Autoscroll
slow
fast
+/-
esc
set tempo
stop
Author
-------------------------------------------------------------------------------
                             USE - Dilemma Uncovered
-------------------------------------------------------------------------------
Tabbed by: Caleb Severn
Email: paradox_047@yahoo.com

Tuning: Standard (EADGBe)

Update: 1/3/10 - Intro, Verse, and Chorus updated, added guitar part.
Update: 1/5/10 - Detailed rest of song, added interlude. Finished.

  Intro
e|---------------------------------------------------------------------------|
B|---------------------------------------------------------------------------|
G|---------------------------------------------------------------------------|
D|-------5-----------------5---------------5--------------5------4-----------| 
A|----7-----------------5---------------3--------------5-------5-------------|
E|---------------------------------------------------------------------------|

e|---------------------------------------------------------------------------|
B|---------------------------------------------------------------------------|
G|---------------------------------------------------------------------------|
D|-------5-----------------5---------------5--------------5------4-----------| 
A|----7-----------------5---------------3--------------5-------5-------------|
E|---------------------------------------------------------------------------|

  Verse 1A
e|---------------------------------------------------------------------------|
B|---------------------------------------------------------------------------|
G|---------------------------------------------------------------------------|
D|-------5-----------------5---------------5--------------5------4-----------| 
A|----7-----------------5---------------3--------------5-------5-------------|
E|---------------------------------------------------------------------------|

e|---------------------------------------------------------------------------|
B|---------------------------------------------------------------------------|
G|---------------------------------------------------------------------------|
D|-------5-----------------5---------------5--------------5------4-----------| 
A|----7-----------------5---------------3--------------5-------5-------------|
E|---------------------------------------------------------------------------|


  Verse 1B                                           
e|---------------------------------------------------------------------------|\
B|---------------------------------------------------------------------------| \ 
G|---------------------------------------------------------------------------|  \
D|----------5--------5----------5-------5---------5------5---------5------4--|   \
A|-----7-7------7-7--------5-5-----5-5-------3-3-----3-3-------5-5----5-5----|    \
E|---------------------------------------------------------------------------|     \
                                                                                    | 2 Guitars
e|---------------------------------------------------------------------------|     /
B|-----3-3-3-3-5-5-5-5-7-7-7-7-8-8-8-8-3-3-3-3-5-5-5-5-7-7-7-7-8-8-8-8-------|    / 
G|---------------------------------------------------------------------------|   /   
D|---------------------------------------------------------------------------|  / 
A|---------------------------------------------------------------------------| /
E|---------------------------------------------------------------------------|/

e|---------------------------------------------------------------------------|\
B|---------------------------------------------------------------------------| \ 
G|-----------------------------------------------------------5-5---5---------|  \
D|----------5--------5----------5-------5---------5------5---5-5---5---------|   \
A|-----7-7------7-7--------5-5-----5-5-------3-3-----3-3-----3-3---3---------|    \
E|---------------------------------------------------------------------------|     \
                                                                                    | 2 Guitars
e|---------------------------------------------------------------------------|     /
B|-----3-3-3-3-5-5-5-5-7-7-7-7-8-8-8-8-10-10-10-10-8-8-8-8-7-7-7-7-8\--------|    / 
G|---------------------------------------------------------------------------|   /   
D|---------------------------------------------------------------------------|  / 
A|---------------------------------------------------------------------------| /
E|---------------------------------------------------------------------------|/

  Chorus 1
e|------------------------------------------------------------------------|\
B|------------------------------------------------------------------------| \
G|-----9-9-9-9-9-9-9-9-7-7-7-7-7-7-7-7-5-5-5-5-5-5-5-5-7-7-7-7-4-4-4-4----|  \
D|-----9-9-9-9-9-9-9-9-7-7-7-7-7-7-7-7-5-5-5-5-5-5-5-5-7-7-7-7-4-4-4-4----|   \
A|-----7-7-7-7-7-7-7-7-5-5-5-5-5-5-5-5-3-3-3-3-3-3-3-3-5-5-5-5-2-2-2-2----|    \
E|------------------------------------------------------------------------|     \
                                                                                 | 2 Guitars
e|------------------------------------------------------------------------|     / 
B|------------------------------------------------------------------------|    /
G|-----9-9-9-9-9-9-9-9-7-7-7-7-7-7-7-7-5-5-5-5-5-5-5-5-7-7-7-7-4-4-4-4----|   /
D|-----x-x-x-x-x-x-x-x-x-x-x-x-x-x-x-x-x-x-x-x-x-x-x-x-x-x-x-x-x-x-x-x----|  /
A|-----7-7-7-7-7-7-7-7-5-5-5-5-5-5-5-5-3-3-3-3-3-3-3-3-5-5-5-5-2-2-2-2----| /
E|------------------------------------------------------------------------|/


e|---------------------------------------------------------------------------|\
B|---------------------------------------------------------------------------| \ 
G|-----9-9-9-9-9-9-9-9-7-7-7-7-7-7-7-7-5-5-5-5-5-5-5-5-7-7-7-7-4-4-4-4-------|  \
D|-----9-9-9-9-9-9-9-9-7-7-7-7-7-7-7-7-5-5-5-5-5-5-5-5-7-7-7-7-4-4-4-4-------|   \
A|-----7-7-7-7-7-7-7-7-5-5-5-5-5-5-5-5-3-3-3-3-3-3-3-3-5-5-5-5-2-2-2-2-------|    \
E|---------------------------------------------------------------------------|     \
                                                                                    | 2 Guitars
e|---------------------------------------------------------------------------|     /
B|---------------------------------------------------------------------------|    / 
G|-----9-9-9-9-9-9-9-9-1111111111111111-12-12-12-12-11111111-14-14-14-14-----|   /   
D|-----x-x-x-x-x-x-x-x-x-x-x-x-x-x-x-x--x--x--x--x--x-x-x-x--x--x--x--x------|  / 
A|-----7-7-7-7-7-7-7-7-9-9-9-9-9-9-9-9--10-10-10-10-9-9-9-9--12-12-12-12-----| /
E|---------------------------------------------------------------------------|/

  Post Chorus
e|---------------------------------------------------------------------------|
B|---------------------------------------------------------------------------|
G|---------------------------------------------------------------------------|
D|----5--5---------5--5---------5--5----------5-5-5-----4-4-4----------------|
A|----7--7---------5--5---------3--3----------5-5-5-----5-5-5----------------|
E|---------------------------------------------------------------------------|

  Verse 2A
e|---------------------------------------------------------------------------|
B|---------------------------------------------------------------------------|
G|---------------------------------------------------------------------------|
D|----5--5---------5--5---------5--5----------5--5-------4--4----------------|
A|----7--7---------5--5---------3--3----------5--5-------5--5----------------|
E|---------------------------------------------------------------------------|

e|---------------------------------------------------------------------------|
B|---------------------------------------------------------------------------|
G|---------------------------------------------------------------------------|
D|----5--5---------5--5---------5--5----------5--5-------4--4----------------|
A|----7--7---------5--5---------3--3----------5--5-------5--5----------------|
E|---------------------------------------------------------------------------|

  Verse 2B                                           
e|---------------------------------------------------------------------------|\
B|---------------------------------------------------------------------------| \ 
G|---------------------------------------------------------------------------|  \
D|----------5--------5----------5-------5---------5------5---------5------4--|   \
A|-----7-7------7-7--------5-5-----5-5-------3-3-----3-3-------5-5----5-5----|    \
E|---------------------------------------------------------------------------|     \
                                                                                    | 2 Guitars
e|---------------------------------------------------------------------------|     /
B|-----3-3-3-3-5-5-5-5-7-7-7-7-8-8-8-8-3-3-3-3-5-5-5-5-7-7-7-7-8-8-8-8-------|    / 
G|---------------------------------------------------------------------------|   /   
D|---------------------------------------------------------------------------|  / 
A|---------------------------------------------------------------------------| /
E|---------------------------------------------------------------------------|/

e|---------------------------------------------------------------------------|\
B|---------------------------------------------------------------------------| \ 
G|-----------------------------------------------------------5-5---5---------|  \
D|----------5--------5----------5-------5---------5------5---5-5---5---------|   \
A|-----7-7------7-7--------5-5-----5-5-------3-3-----3-3-----3-3---3---------|    \
E|---------------------------------------------------------------------------|     \
                                                                                    | 2 Guitars
e|---------------------------------------------------------------------------|     /
B|-----3-3-3-3-5-5-5-5-7-7-7-7-8-8-8-8-10-10-10-10-8-8-8-8-7-7-7-7-8\--------|    / 
G|---------------------------------------------------------------------------|   /   
D|---------------------------------------------------------------------------|  / 
A|---------------------------------------------------------------------------| /
E|---------------------------------------------------------------------------|/

  Chorus 2
e|------------------------------------------------------------------------|\
B|------------------------------------------------------------------------| \
G|-----9-9-9-9-9-9-9-9-7-7-7-7-7-7-7-7-5-5-5-5-5-5-5-5-7-7-7-7-4-4-4-4----|  \
D|-----9-9-9-9-9-9-9-9-7-7-7-7-7-7-7-7-5-5-5-5-5-5-5-5-7-7-7-7-4-4-4-4----|   \
A|-----7-7-7-7-7-7-7-7-5-5-5-5-5-5-5-5-3-3-3-3-3-3-3-3-5-5-5-5-2-2-2-2----|    \
E|------------------------------------------------------------------------|     \
                                                                                 | 2 Guitars
e|------------------------------------------------------------------------|     / 
B|------------------------------------------------------------------------|    /
G|-----9-9-9-9-9-9-9-9-7-7-7-7-7-7-7-7-5-5-5-5-5-5-5-5-7-7-7-7-4-4-4-4----|   /
D|-----x-x-x-x-x-x-x-x-x-x-x-x-x-x-x-x-x-x-x-x-x-x-x-x-x-x-x-x-x-x-x-x----|  /
A|-----7-7-7-7-7-7-7-7-5-5-5-5-5-5-5-5-3-3-3-3-3-3-3-3-5-5-5-5-2-2-2-2----| /
E|------------------------------------------------------------------------|/


e|---------------------------------------------------------------------------|\
B|---------------------------------------------------------------------------| \ 
G|-----9-9-9-9-9-9-9-9-7-7-7-7-7-7-7-7-5-5-5-5-5-5-5-5-7-7-7-7-4-4-4-4-------|  \
D|-----9-9-9-9-9-9-9-9-7-7-7-7-7-7-7-7-5-5-5-5-5-5-5-5-7-7-7-7-4-4-4-4-------|   \
A|-----7-7-7-7-7-7-7-7-5-5-5-5-5-5-5-5-3-3-3-3-3-3-3-3-5-5-5-5-2-2-2-2-------|    \
E|---------------------------------------------------------------------------|     \
                                                                                    | 2 Guitars
e|---------------------------------------------------------------------------|     /
B|---------------------------------------------------------------------------|    / 
G|-----9-9-9-9-9-9-9-9-1111111111111111-12-12-12-12-11111111-14-14-14-14-----|   /   
D|-----x-x-x-x-x-x-x-x-x-x-x-x-x-x-x-x--x--x--x--x--x-x-x-x--x--x--x--x------|  / 
A|-----7-7-7-7-7-7-7-7-9-9-9-9-9-9-9-9--10-10-10-10-9-9-9-9--12-12-12-12-----| /
E|---------------------------------------------------------------------------|/

  Interlude                P.M......
e|---------------------------------------------------------------------------|
B|---------------------------------------------------------------------------|
G|--9--9--9--9--9--9--9--9---7-7-7-7--7-------12--12--12--12-----------------|
D|--9--9--9--9--9--9--9--9---7-7-7-7--7-------x---x---x---x------------------| 
A|--7--7--7--7--7--7--7--7---5-5-5-5--5-------10--10--10--10-----------------|
E|---------------------------------------------------------------------------|
                     P.M....
e|---------------------------------------------------------------------------|
B|---------------------------------------------------------------------------|
G|--5---5---5---5------4-4-4--4----------12--12--12--12----------------------|
D|--5---5---5---5------4-4-4--4----------x---x---x---x-----------------------| 
A|--3---3---3---3------2-2-2--2----------10--10--10--10----------------------|
E|---------------------------------------------------------------------------|

                           P.M......
e|---------------------------------------------------------------------------|
B|---------------------------------------------------------------------------|
G|--9--9--9--9--9--9--9--9---7-7-7-7--7-------12--12--12--12-----------------|
D|--9--9--9--9--9--9--9--9---7-7-7-7--7-------x---x---x---x------------------| 
A|--7--7--7--7--7--7--7--7---5-5-5-5--5-------10--10--10--10-----------------|
E|---------------------------------------------------------------------------|
                     P.M....
e|---------------------------------------------------------------------------|
B|---------------------------------------------------------------------------|
G|--5---5---5---5------4-4-4--4-----------------{5}--------------------------|
D|--5---5---5---5------4-4-4--4-----------NATURAL-HARMONIC-------------------| 
A|--3---3---3---3------2-2-2--2----------------------------------------------|
E|---------------------------------------------------------------------------|

  Solo (Guitar in background playing natural harmonics on 5th fret)
e|------------------------------------------------------------------------|\
B|------------------------------------------------------------------------| \
G|----9---9---9---9---9---9---9---9---7---7---7---7---7---7---7---7-------|  \
D|----9---9---9---9---9---9---9---9---7---7---7---7---7---7---7---7-------|   \
A|----7---7---7---7---7---7---7---7---5---5---5---5---5---5---5---5-------|    \
E|------------------------------------------------------------------------|     \
                                                                                 | 2 Guitars
e|------------------------------7--------------------------------7--------|     / 
B|---5---5-5-5---7---8---7--5-5---5---5---5-5-5---7---8---7--5-5---5------|    /
G|------------------------------------------------------------------------|   /
D|------------------------------------------------------------------------|  /
A|------------------------------------------------------------------------| /
E|------------------------------------------------------------------------|/

e|------------------------------------------------------------------------|\
B|------------------------------------------------------------------------| \
G|----5---5---5---5---5---5---5---5---7---7---7---7---4---4---4---4-------|  \
D|----5---5---5---5---5---5---5---5---7---7---7---7---4---4---4---4-------|   \
A|----3---3---3---3---3---3---3---3---5---5---5---5---2---2---2---2-------|    \
E|------------------------------------------------------------------------|     \
                                                                                 | 2 Guitars
e|------------------------------7--------------------------------7--------|     / 
B|---5---5-5-5---7---8---7--5-5---5---5---5-5-5---7---8---7--5-5---5------|    /
G|------------------------------------------------------------------------|   /
D|------------------------------------------------------------------------|  /
A|------------------------------------------------------------------------| /
E|------------------------------------------------------------------------|/

e|------------------------------------------------------------------------|\
B|------------------------------------------------------------------------| \
G|----9---9---9---9---9---9---9---9---7---7---7---7---7---7---7---7-------|  \
D|----9---9---9---9---9---9---9---9---7---7---7---7---7---7---7---7-------|   \
A|----7---7---7---7---7---7---7---7---5---5---5---5---5---5---5---5-------|    \
E|------------------------------------------------------------------------|     \
                                                                                 | 2 Guitars
e|------------------------------7--------------------------------7--------|     / 
B|---5---5-5-5---7---8---7--5-5---5---5---5-5-5---7---8---7--5-5---5------|    /
G|------------------------------------------------------------------------|   /
D|------------------------------------------------------------------------|  /
A|------------------------------------------------------------------------| /
E|------------------------------------------------------------------------|/

e|------------------------------------------------------------------------|\
B|------------------------------------------------------------------------| \
G|----5---5---5---5---5---5---5---5---7---7---7---7---4---4---4---4-------|  \
D|----5---5---5---5---5---5---5---5---7---7---7---7---4---4---4---4-------|   \
A|----3---3---3---3---3---3---3---3---5---5---5---5---2---2---2---2-------|    \
E|------------------------------------------------------------------------|     \
                                                                                 | 2 Guitars
e|------------------------------7--------------------------------7--------|     / 
B|---5---5-5-5---7---8---7--5-5---5---5---5-5-5---7---8---7--5-5---5------|    /
G|------------------------------------------------------------------------|   /
D|------------------------------------------------------------------------|  /
A|------------------------------------------------------------------------| /
E|------------------------------------------------------------------------|/
         
            (previous solo guitar continues in background)
e|------------------------------------------------------------------------|\
B|------------------------------------------------------------------------| \
G|----9---9---9---9---9---9---9---9---7---7---7---7---7---7---7---7-------|  \
D|----9---9---9---9---9---9---9---9---7---7---7---7---7---7---7---7-------|   \
A|----7---7---7---7---7---7---7---7---5---5---5---5---5---5---5---5-------|    \
E|------------------------------------------------------------------------|     \
                                                                                 | 2 Guitars
e|----------------------------19---------------------------------19-------|     / 
B|-17-17-17-17-19-20-19-17-17----17---17-17-17-17-19-20-19-17-17----17----|    /
G|------------------------------------------------------------------------|   /
D|------------------------------------------------------------------------|  /
A|------------------------------------------------------------------------| /
E|------------------------------------------------------------------------|/

e|------------------------------------------------------------------------|\
B|------------------------------------------------------------------------| \
G|----5---5---5---5---5---5---5---5---7---7---7---7---4---4---4---4-------|  \
D|----5---5---5---5---5---5---5---5---7---7---7---7---4---4---4---4-------|   \
A|----3---3---3---3---3---3---3---3---5---5---5---5---2---2---2---2-------|    \
E|------------------------------------------------------------------------|     \
                                                                                 | 2 Guitars
e|----------------------------19---------------------------------19-------|     / 
B|-17-17-17-17-19-20-19-17-17----17---17-17-17-17-19-20-19-17-17----17----|    /
G|------------------------------------------------------------------------|   /
D|------------------------------------------------------------------------|  /
A|------------------------------------------------------------------------| /
E|------------------------------------------------------------------------|/

e|------------------------------------------------------------------------|\
B|------------------------------------------------------------------------| \
G|----9---9---9---9---9---9---9---9---7---7---7---7---7---7---7---7-------|  \
D|----9---9---9---9---9---9---9---9---7---7---7---7---7---7---7---7-------|   \
A|----7---7---7---7---7---7---7---7---5---5---5---5---5---5---5---5-------|    \
E|------------------------------------------------------------------------|     \
                                                                                 | 2 Guitars
e|------------------------------------------------------------------------|     / 
B|----------17-17-20p19p17(x4)--20b----20p19p17(x4)---13~-----------------|    /
G|------------------------------------------------------------------------|   /
D|------------------------------------------------------------------------|  /
A|------------------------------------------------------------------------| /
E|------------------------------------------------------------------------|/

e|------------------------------------------------------------------------|\
B|------------------------------------------------------------------------| \
G|----5---5---5---5---5---5---5---5---7---7---7---7---4---4---4---4-------|  \
D|----5---5---5---5---5---5---5---5---7---7---7---7---4---4---4---4-------|   \
A|----3---3---3---3---3---3---3---3---5---5---5---5---2---2---2---2-------|    \
E|------------------------------------------------------------------------|     \
                                                                                 | 2 Guitars
e|------------------------------------------------------------------------|     / 
B|-17h19-17h19-17h19-17h19-17h19-17h19-19h20-19h20-19h20-19h20-19h20p19-17|    /
G|------------------------------------------------------------------------|   /
D|------------------------------------------------------------------------|  /
A|------------------------------------------------------------------------| /
E|------------------------------------------------------------------------|/

  Chorus 3
e|------------------------------------------------------------------------|\
B|------------------------------------------------------------------------| \
G|-----9-9-9-9-9-9-9-9-7-7-7-7-7-7-7-7-5-5-5-5-5-5-5-5-7-7-7-7-4-4-4-4----|  \
D|-----9-9-9-9-9-9-9-9-7-7-7-7-7-7-7-7-5-5-5-5-5-5-5-5-7-7-7-7-4-4-4-4----|   \
A|-----7-7-7-7-7-7-7-7-5-5-5-5-5-5-5-5-3-3-3-3-3-3-3-3-5-5-5-5-2-2-2-2----|    \
E|------------------------------------------------------------------------|     \
                                                                                 | 2 Guitars
e|------------------------------------------------------------------------|     / 
B|------------------------------------------------------------------------|    /
G|-----9-9-9-9-9-9-9-9-7-7-7-7-7-7-7-7-5-5-5-5-5-5-5-5-7-7-7-7-4-4-4-4----|   /
D|-----x-x-x-x-x-x-x-x-x-x-x-x-x-x-x-x-x-x-x-x-x-x-x-x-x-x-x-x-x-x-x-x----|  /
A|-----7-7-7-7-7-7-7-7-5-5-5-5-5-5-5-5-3-3-3-3-3-3-3-3-5-5-5-5-2-2-2-2----| /
E|------------------------------------------------------------------------|/


e|---------------------------------------------------------------------------|\
B|---------------------------------------------------------------------------| \ 
G|-----9-9-9-9-9-9-9-9-7-7-7-7-7-7-7-7-5-5-5-5-5-5-5-5-7-7-7-7-4-4-4-4-------|  \
D|-----9-9-9-9-9-9-9-9-7-7-7-7-7-7-7-7-5-5-5-5-5-5-5-5-7-7-7-7-4-4-4-4-------|   \
A|-----7-7-7-7-7-7-7-7-5-5-5-5-5-5-5-5-3-3-3-3-3-3-3-3-5-5-5-5-2-2-2-2-------|    \
E|---------------------------------------------------------------------------|     \
                                                                                    | 2 Guitars
e|---------------------------------------------------------------------------|     /
B|---------------------------------------------------------------------------|    / 
G|-----9-9-9-9-9-9-9-9-1111111111111111-12-12-12-12-11111111-14-14-14-14-----|   /   
D|-----x-x-x-x-x-x-x-x-x-x-x-x-x-x-x-x--x--x--x--x--x-x-x-x--x--x--x--x------|  / 
A|-----7-7-7-7-7-7-7-7-9-9-9-9-9-9-9-9--10-10-10-10-9-9-9-9--12-12-12-12-----| /
E|---------------------------------------------------------------------------|/

e|------------------------------------------------------------------------|\
B|------------------------------------------------------------------------| \
G|-----9-9-9-9-9-9-9-9-7-7-7-7-7-7-7-7-5-5-5-5-5-5-5-5-7-7-7-7-4-4-4-4----|  \
D|-----9-9-9-9-9-9-9-9-7-7-7-7-7-7-7-7-5-5-5-5-5-5-5-5-7-7-7-7-4-4-4-4----|   \
A|-----7-7-7-7-7-7-7-7-5-5-5-5-5-5-5-5-3-3-3-3-3-3-3-3-5-5-5-5-2-2-2-2----|    \
E|------------------------------------------------------------------------|     \
                                                                                 | 2 Guitars
e|------------------------------------------------------------------------|     / 
B|------------------------------------------------------------------------|    /
G|-----9-9-9-9-9-9-9-9-7-7-7-7-7-7-7-7-5-5-5-5-5-5-5-5-7-7-7-7-4-4-4-4----|   /
D|-----x-x-x-x-x-x-x-x-x-x-x-x-x-x-x-x-x-x-x-x-x-x-x-x-x-x-x-x-x-x-x-x----|  /
A|-----7-7-7-7-7-7-7-7-5-5-5-5-5-5-5-5-3-3-3-3-3-3-3-3-5-5-5-5-2-2-2-2----| /
E|------------------------------------------------------------------------|/


e|---------------------------------------------------------------------------|\
B|---------------------------------------------------------------------------| \ 
G|-----9-9-9-9-9-9-9-9-7-7-7-7-7-7-7-7-5-5-5-5-5-5-5-5-7-7-7-7-4-4-4-4-------|  \
D|-----9-9-9-9-9-9-9-9-7-7-7-7-7-7-7-7-5-5-5-5-5-5-5-5-7-7-7-7-4-4-4-4-------|   \
A|-----7-7-7-7-7-7-7-7-5-5-5-5-5-5-5-5-3-3-3-3-3-3-3-3-5-5-5-5-2-2-2-2-------|    \
E|---------------------------------------------------------------------------|     \
                                                                                    | 2 Guitars
e|---------------------------------------------------------------------------|     /
B|---------------------------------------------------------------------------|    / 
G|-----9-9-9-9-9-9-9-9-1111111111111111-12-12-12-12-11111111-14-14-14-14-----|   /   
D|-----x-x-x-x-x-x-x-x-x-x-x-x-x-x-x-x--x--x--x--x--x-x-x-x--x--x--x--x------|  / 
A|-----7-7-7-7-7-7-7-7-9-9-9-9-9-9-9-9--10-10-10-10-9-9-9-9--12-12-12-12-----| /
E|---------------------------------------------------------------------------|/

  Final Chord (I'm sure Dom will whip up a crazy drum solo to finish the song off 
while this chord rings.)
e|------|
B|------|
G|---9--|
D|---9--|
A|---7--|
E|------|



| /  slide up
| \  slide down
| h  hammer-on
| p  pull-off
| ~  vibrato
| +  harmonic
| x  Mute note
===============================================================================
Suggest correction
Creating personal tab
Creating personal tab
You can edit any tab online and save it as your Personal.

You can edit, replace or remove any tab part or add personal notes – all changes will be seen only by you.

Personal tabs can be accessed anytime from any device, even offline.
Learn more »
Give kudos to tab author, rate the tab!
1 2 3 4 5
comments
print report bad tab
guest
You may want to rate the tab now too:
select rating
Wanna post a correction for this tab? Suggest correction