Oops, an error
Loading. Please wait.

Dilwale Dulhania Le Jayenge - Tujhe Dekha To solo tab

42,635 views 36 this week
2 commentsread comments
1 2 3 4 5
x 13
add to favorites
×
Save as Personal and add changes to this tab that will be seen only by you. Learn more ›
×
You can save this tab as Personal to edit and correct it or add notes. All changes will be seen only by you. Learn more »
launch autoscroll
font size
0
reset
how to read this tab
guitar tuner
edit
Autoscroll
slow
fast
+/-
esc
set tempo
stop
Author
Difficulty
[Solo]

e|-0-0-0----7-5-7---3--5---8-7--------|
B|------------------------------------|
G|------------------------------------|
D|------------------------------------|
A|------------------------------------|
E|------------------------------------|

e|-0-0-0-----7-5-7--3-5-------3--2----|
B|------------------------------------|
G|------------------------------------|
D|------------------------------------|
A|------------------------------------|
E|------------------------------------|

e|-0-0-0----7-5-7---3--5----10-7------|
B|------------------------------------|
G|------------------------------------|
D|------------------------------------|
A|------------------------------------|
E|------------------------------------|

e|-0-0-0-----7-5-7--3-5-------3--2----|
B|------------------------------------|
G|------------------------------------|
D|------------------------------------|
A|------------------------------------|
E|------------------------------------|

e|-2-2-2-----0-2-0-0-2------3--2------|
B|------------------------------------|
G|------------------------------------|
D|------------------------------------|
A|------------------------------------|
E|------------------------------------|

e|-2-2-2-----0-2-0-0-2------0--0------|
B|------------------------------------|
G|------------------------------------|
D|------------------------------------|
A|------------------------------------|
E|------------------------------------|

            
            
Suggest correction
Creating personal tab
Creating personal tab
You can edit any tab online and save it as your Personal.

You can edit, replace or remove any tab part or add personal notes – all changes will be seen only by you.

Personal tabs can be accessed anytime from any device, even offline.
Learn more »
comments
print report bad tab
2 comments total.
+2 reply
Plush1998 10 Aug 01, 2011 07:01 PM

Wow, this is great. I learned it and played it to my parents and they were so thrilled and surprised. My mom told me to play it again and again!!! Thank-you!!! Please make more!!! I really wanted to know how to play, Rukh Ja O Dil Deewani, Hogaya Hai Tujko To Pyaar (Dilwale Dulhania Le Jayenge), and Koi Mil Gaya (Kuch Kuch Hota Hai). So maybe if you could make those too!!Thanks Again!!!

0 reply
shashank2k9 10 Apr 23, 2017 07:29 AM

👍

guest
You may want to rate the tab now too:
select rating
Wanna post a correction for this tab? Suggest correction