Oops, an error
Loading. Please wait.

Distablish - Silent Answer Bass Tab

128 views 1 this week
no commentswrite comment
1 2 3 4 5
3 more votes to show rating
add to favorites
launch autoscroll
font size
0
reset
guitar tuner
×
Best way to learn
"Distablish - Silent Answer"
Autoscroll
slow
fast
+/-
esc
set tempo
stop
This solo is played with wah on.  its my bass solo from my band Distablish

Key: 
\=SLIDE DOWN
/=SLIDE UP
* = REPEAT MEASURE
 (NOTE) NOTES WITHOUT HYPHENS IN BETWEEN = PLAY VERY FAST.

                                                         4
G|-------||------------------------------------------------|
D|-------||*----------------------------------------------*| 
A|-0~-19\||*-0-12-13-0-12-13-0-12-13-0-12-13-14-14-14-14--*|
E|-------||------------------------------------------------|

                                    4
G|-----------------------------------|
D|*---------------------------------*|
A|*-0-13-12-0-13-12-0-13-12-9-9-9-9-*|
E|-----------------------------------|  

                        2
G|-----------------------|
D|*--------13--------12-*|
A|*-0-12h13---0-13p12---*|
E|-----------------------|

                              2   Tail 
G|-----------------------------||-------|
D|*--------12-14--------13-11-*||-11~~\-|
A|*-0-12h13------0-13p12------*||-------|
E|-----------------------------||-------|


G|--------------5—-1-------6-------------|
D|--2----------5—-1----3—-6--------------|
A|-2----5---2---------3-------1---0---3~-|
E|-----5---2-----------------2---0---5---|


G|------------------------------------------------|
D|-0-00-00-00—1-2--0-00-00-00-3-4--0-00-00-00—5-6-|
A|------------------------------------------------|
E|------------------------------------------------|

                                                                         2
G|------------------------------------------------------------------------||------|
D|*-0-00-00-00—5-6--0-00-00-00--------0-00-00-00—5-6--0-00-00-00---------*||------|
A|*----------------------------6p5h6p5---------------------------6p5h6p5-*||-(6)\-|
E|------------------------------------------------------------------------||------|


G|--------------------------------------------------------------|
D|--------------------------------------------------------------|
A|---------6-8-6-8~-6h8p6h8~-(8)\-------------------------------|
E|-0—2-4-6--------------------------0--0000-0000-0000~---19\(0)-|

Delete it, add it , or ignore it; but whatever you do, please rate this. Thanx abunch
                                 -Distablish bassist  Ryne Streeter
Suggest correction
Give kudos to tab author, rate the tab!
1 2 3 4 5
comments
print report bad tab
guest
You may want to rate the tab now too:
select rating
Wanna post a correction for this tab? Suggest correction