Oops, an error
Loading. Please wait.

Divide - Rain Bass Tab

15 views 1 this week
no commentswrite comment
1 2 3 4 5
please rate
add to favorites
launch autoscroll
font size
0
reset
guitar tuner
Autoscroll
slow
fast
+/-
esc
set tempo
stop
Help us to improve Ultimate-Guitar.com Take our survey!
×
Author
Difficulty
Tuning
intermediate
D# G# C# F# A# D#
    INTRO

G|-------------------------------|
D|-------------------------------|
A|--12--12--12--9--10--10--9--9--|
E|-------------------------------|

G|--------------------------------------|
D|--------------------------------------|
A|--------------------3-----------------|
E|--5--------1-----------------3--------|


G|--------------------------------------------------|
D|--------------------------------------------------|
A|--------------------------------------------------|
E|--5--5--5--5--5--5--5--5--5--5--5--5--5--5--5--5--|

G|--------------------------------------------------|
D|--------------------------------------------------|
A|--------------------------------------------------|
E|--1--1--1--1--1--1--1--1--1--1--1--1--1--1--1--1--|

G|--------------------------------------------------|
D|--------------------------------------------------|
A|--3--3--3--3--3--3--3--3--3--3--3--3--3--3--3--3--|
E|--------------------------------------------------|

G|--------------------------------------------------|
D|--------------------------------------------------|
A|--------------------------------------------------|
E|--3--3--3--3--3--3--3--3--4--4--4--4--4--4--4--4--|


VERSE

G|--------------------------------------------------------------|
D|--------------------------------------------------------------|
A|--------------------------------------7--7--5--5--3--3--2--2--|
E|--5--5--------1--1--------3--3--------------------------------|
                                                                 (REPEAT
G|---------------------------------------------------------------|  THESE
D|---------------------------------------------------------------|   AS MANY
A|---------------------------------------------------------------|    TIMES
E|--5--5--------1--1--------3--3--------0--0--0--0--3--3--3--3---| NECESSARY)


PRE-CHORUS

G|-----------------------------------------------------|
D|-----------------------------------------------------|
A|-----------------------------------------------------|
E|--5----------------8----------------0----------------|

   (Lick played with guitar, fast)
G|--14--12------12--------------------------------------|
D|----------14------14--12------12--14--12------12------|
A|--------------------------15--------------14------12--|
E|------------------------------------------------------|

CHORUS

G|-----------------------------------------------------------------|
D|-----------------------------------------------------------------|
A|-----------------------------------------------------------------|
E|-5-5-5-5-5-5-5-5-5-5-5-5-5-5-5-5-1-1-1-1-1-1-1-1-1-1-1-1-1-1-1-1-|

G|-----------------------------------------------------------------|
D|-----------------------------------------------------------------|
A|-3-3-3-3-3-3-3-3-3-3-3-3-3-3-3-3---------------------------------|
E|---------------------------------3-3-3-3-3-3-3-3-3-3-3-3-3-3-3-3-|

G|-----------------------------------------------------------------|
D|-----------------------------------------------------------------|
A|-----------------------------------------------------------------|
E|-5-5-5-5-5-5-5-5-5-5-5-5-5-5-5-5-1-1-1-1-1-1-1-1-1-1-1-1-1-1-1-1-|

G|-----------------------------------------------------------------|
D|-----------------------------------------------------------------|
A|-3-3-3-3-3-3-3-3-3-3-3-3-3-3-3-3---------------------------------|
E|---------------------------------3-3-3-3-3-3-3-3-4-4-4-4-4-4-4-4-|


REPEAT VERSE HOWEVER AT LYRIC: DON'T BURY YOUR HEAD, THE STOPS BECOME CONSTANT, YOU WILL 
NOTICE IN THE TRACK.
REPEAT PRE-CHORUS
REPEAT CHORUS

SOLO : STABS WITH DRUMS

G|-----------------------------------------------------------|
D|-----------------------------------------------------------|
A|-----------------------------------------------------------|
E|-5----5-5----5-5-5----5-5----5-5-5-5---5-5----5-5-5-5---5--| <(FOLLOW ROLL
WITH THIS NOTE)

G|-----------------------------------------------------------------|
D|-----------------------------------------------------------------|
A|-----------------------------------------------------------------|
E|-5-5-5-5-5-5-5-5-3-3-3-3-3-3-3-3-1-1-1-1-1-1-1-1-3-3-3-3-3-3-3-3-|

G|--------------------------------------5--4--------------------------------|
D|--------------7--5-----5--------------------5-----------------3--2-----2--|
A|--------7-----------7-----------5--------------5--------3-----------3-----|
E|--5--5-----5--------------3--3-----3--------------1--1-----1--------------|

G|-----------------------------|
D|-----------------------------|
A|-----------------------------|
E|--3--3--5--5--7--7--3--3--5--|

REPEAT CHORUS AS MANY TIMES NECESSARY

END STABS WITH DRUMS

G|---------------------------------------------------------|
D|---------------------------------------------------------|
A|---------------------------------------------------------|
E|--5--------5--5--------5--5--5--------5--5--5--5------5--|


Tab credit: Tommie Sissons

The Band DIVIDE (Listen to songs on page):
https://www.facebook.com/Divide.officialband?fref=ts
Suggest correction
Give kudos to tab author, rate the tab!
1 2 3 4 5
comments
print report bad tab
guest
You may want to rate the tab now too:
select rating
Please do not post tabs as comments. Select "correction" instead!