Oops, an error
Loading. Please wait.

Dont Forget - Willian And Sovattaro Tab

28 views 1 this week
no commentswrite comment
1 2 3 4 5
please rate
add to favorites
launch autoscroll
font size
0
reset
how to read this tab
guitar tuner
Autoscroll
slow
fast
+/-
esc
set tempo
stop
Help us to improve Ultimate-Guitar.com Take our survey!
×




Verse 1  X3


E---------------------------------------------------|
B---------------------------------------------------|
G---------------------------------------------------|
D---------------------------------------------------|
A-----9--9--9--9--9--9--9--9----9-9-9-9-9-9-9-9-----|
E----10-10-10-10-10-10-10-10----9-9-9-9-9-9-9-9-----|


E---------------------------------------------------|
B---------------------------------------------------|
G---------------------------------------------------|
D---------------------------------------------------|
A-----9-9-9-9-9-9-9-9----/5-5-5----7-7-7------------|
E-----7-7-7-7-7-7-7-7----/3-3-3----5-5-5------------|

Virse 2    X1
E--------------------------------------------------------|
B--------------------------------------------------------|
G--------------------------------------------------------|
D--------------------------------------------------------|
A-----9--9--9--9--9--9--9--9----9-9-9-9-9-9-9-9----------|
E----10-10-10-10-10-10-10-10----9-9-9-9-9-9-9-9----------|


E------------------------------------------------------------|
B------------------------------------------------------------|
G------------------------------------------------------------|
D------------------------------------------------------------|
A-----9-9-9-9-9-9-9-9----/5-5-5----7-7-7-7-7-7-7-7-7-7-7-7---|
E-----7-7-7-7-7-7-7-7----/3-3-3----5-5-5-5-5-5-5-5-5-5-5-5---|


Chorus  X3

E-------------------------------------------------|
B-------------------------------------------------|
G-------------------------------------------------|
D-------------------------------------------------|
A---9-9-9-9-9-9-9-9----4-4-4-4-4-4-4-4------------|
E---7-7-7-7-7-7-7-7----2-2-2-2-2-2-2-2------------|


E------------------------------------------------|
B------------------------------------------------|
G------------------------------------------------|
D------------------------------------------------|
A----6-6-6-6-6-6-6-6----2-2-2-2-2-2-2-2----------|
E----4-4-4-4-4-4-4-4----0-0-0-0-0-0-0-0----------|

Outro Chorus X1
E-------------------------------------------------|
B-------------------------------------------------|
G-------------------------------------------------|
D-------------------------------------------------|
A---9-9-9-9-9-9-9-9----4-4-4-4-4-4-4-4------------|
E---7-7-7-7-7-7-7-7----2-2-2-2-2-2-2-2------------|


E------------------------------------------------|
B------------------------------------------------|
G------------------------------------------------|
D------------------------------------------------|
A----6-6-6-6-6-6-6-6----2-2-2-2-2-2-2-2----------|
E----4-4-4-4-4-4-4-4----0-0-0-0-0-0-0-0----------|


E------------------------------------------------------------|
B------------------------------------------------------------|
G------------------------------------------------------------|
D------------------------------------------------------------|
A----4-4-4-4-4-4-4-4--2-2-2-2-2-2-2-2--6-6-6-6-6-6-6-6-------|
E----2-2-2-2-2-2-2-2--0-0-0-0-0-0-0-0--4-4-4-4-4-4-4-4-------|


E------------------------------------------------------------|
B------------------------------------------------------------|
G------------------------------------------------------------|
D------------------------------------------------------------|
A---4-4-4-4-4-4-4-4---------4-4------------------------------|
E---2-2-2-2-2-2-2-2---------2-2------------------------------|


  Bridge X3
E--------------------------------------------------------------------|
B--------------------------------------------------------------------|
G--------------------------------------------------------------------|
D--------------------------------------------------------------------|
A-4-4-4-4-4-4-4-4--9-9-9-9-9-9-9-9--11-11-11-11-11-11-11-11-11-11-11-|
E-2-2-2-2-2-2-2-2--7-7-7-7-7-7-7-7---9--9--9--9--9--9--9--9--9--9--9-|


Chorus X3

E-------------------------------------------------|
B-------------------------------------------------|
G-------------------------------------------------|
D-------------------------------------------------|
A---9-9-9-9-9-9-9-9----4-4-4-4-4-4-4-4------------|
E---7-7-7-7-7-7-7-7----2-2-2-2-2-2-2-2------------|


E------------------------------------------------|
B------------------------------------------------|
G------------------------------------------------|
D------------------------------------------------|
A----6-6-6-6-6-6-6-6----2-2-2-2-2-2-2-2----------|
E----4-4-4-4-4-4-4-4----0-0-0-0-0-0-0-0----------|

Outro Chorus X1
E-------------------------------------------------|
B-------------------------------------------------|
G-------------------------------------------------|
D-------------------------------------------------|
A---9-9-9-9-9-9-9-9----4-4-4-4-4-4-4-4------------|
E---7-7-7-7-7-7-7-7----2-2-2-2-2-2-2-2------------|


E------------------------------------------------|
B------------------------------------------------|
G------------------------------------------------|
D------------------------------------------------|
A----6-6-6-6-6-6-6-6----2-2-2-2-2-2-2-2----------|
E----4-4-4-4-4-4-4-4----0-0-0-0-0-0-0-0----------|


E------------------------------------------------------------|
B------------------------------------------------------------|
G------------------------------------------------------------|
D------------------------------------------------------------|
A----4-4-4-4-4-4-4-4--2-2-2-2-2-2-2-2--6-6-6-6-6-6-6-6-------|
E----2-2-2-2-2-2-2-2--0-0-0-0-0-0-0-0--4-4-4-4-4-4-4-4-------|


E------------------------------------------------------------|
B------------------------------------------------------------|
G------------------------------------------------------------|
D------------------------------------------------------------|
A---4-4-4-4-4-4-4-4---------4-4------Let-it-Ring-Out---------|
E---2-2-2-2-2-2-2-2---------2-2------------------------------|

Pre Chorus

Lead Guitar

  G chord      C Chord                   Am Chord            F Chord
   |-3-|             |-X-|                |-X-|              |-X-|
   |-2-|             |-3-|                |-0-|              |-X-|
   |-2-|             |-2-|                |-2-|              |-3-|
   |-0-|X8           |-0-|X8              |-0-|X8            |-2-|X8
   |-0-|             |-1-|                |-1-|              |-1-|
   |-0-|             |-0-|                |-0-|              |-1-|

   ? Chord          ? Chord
   |-X-|             |-X-|
   |-X-|X8           |-X-|X8
   |-0-|             |-0-|
   |-2-|             |-4-|
   |-1-|             |-3-|
   |-0-|             |-0-| Let Ring Out



Verse 1   X3


E---------------------------------------------------|
B---------------------------------------------------|
G---------------------------------------------------|
D---------------------------------------------------|
A-----9--9--9--9--9--9--9--9----9-9-9-9-9-9-9-9-----|
E----10-10-10-10-10-10-10-10----9-9-9-9-9-9-9-9-----|       


E---------------------------------------------------|
B---------------------------------------------------|
G---------------------------------------------------|
D---------------------------------------------------|
A-----9-9-9-9-9-9-9-9----/5-5-5----7-7-7------------|
E-----7-7-7-7-7-7-7-7----/3-3-3----5-5-5------------|

Virse 2  X1
E----------------------------------------------------|
B----------------------------------------------------|
G----------------------------------------------------|
D----------------------------------------------------|
A-----9--9--9--9--9--9--9--9----9-9-9-9-9-9-9-9------|
E----10-10-10-10-10-10-10-10----9-9-9-9-9-9-9-9------|


E------------------------------------------------------------|
B------------------------------------------------------------|
G------------------------------------------------------------|
D------------------------------------------------------------|
A-----9-9-9-9-9-9-9-9----/5-5-5----7-7-7-7-7-7-7-7-7-7-7-7---|
E-----7-7-7-7-7-7-7-7----/3-3-3----5-5-5-5-5-5-5-5-5-5-5-5---|

Brigde X3
E--------------------------------------------------------------------------|
B--------------------------------------------------------------------------|
G--------------------------------------------------------------------------|
D--------------------------------------------------------------------------|
A-4-4-4-4-4-4-4-4--9-9-9-9-9-9-9-9--11-11-11-11-11-11-11-11-11-11-11-------|
E-2-2-2-2-2-2-2-2--7-7-7-7-7-7-7-7---9--9--9--9--9--9--9--9--9--9--9-------    

Brigde X1
E--------------------------------------------------------------------|
B--------------------------------------------------------------------|
G--------------------------------------------------------------------|
D--------------------------------------------------------------------|
A-4-4-4-4-4-4-4-4--9-9-9-9-9-9-9-9--11-11-11-11-11-11-11-11-11-11-11-|
E-2-2-2-2-2-2-2-2--7-7-7-7-7-7-7-7---9--9--9--9--9--9--9--9--9--9--9-|


E--------------------------------------------------------------|
B--------------------------------------------------------------|
G--------------------------------------------------------------|
D--------------------------------------------------------------|
A--12-12-12-12-12-12-12-12--15-15-15-15-15-15-15-15------------|
E--10-10-10-10-10-10-10-10--13-13-13-13-13-13-13-13------------|
Let It Ring Out
Suggest correction
Give kudos to tab author, rate the tab!
1 2 3 4 5
comments
print report bad tab
guest
You may want to rate the tab now too:
select rating
Wanna post a correction for this tab? Suggest correction