Oops, an error
Loading. Please wait.

Dope Flood - A Planet On Four Legs Tab

58 views 1 this week
no commentswrite comment
1 2 3 4 5
3 more votes to show rating
add to favorites
launch autoscroll
font size
0
reset
how to read this tab
guitar tuner
Autoscroll
slow
fast
+/-
esc
set tempo
stop
Help us to improve Ultimate-Guitar.com Take our survey!
×
Author
Difficulty
Tuning
intermediate
D G C F A D
A Planet On Four Legs
Dope Flood
A Planet On Four Legs
2011

INTRO :

D -------------------------------------------------------------|
A -------------------------------------------------------------|
F -------------------------------------------------------------|
C -------------------------------------------------------------|
G --------7-7-7--------7-7-7--------7-7-7--7--7--5--7--8--5----|
D -0--0-0-------0--0-0-------0--0-0-----------5--3--5--6--3--0-|

VERSES :

D --------------------------------|
A --------------------------------|
F --------------------------------|
C -----------5--------------------|
G ---------5--7--7----------------|
D -0--0-0----------0-7-6-5--7--3--|

PRE-CHORUS :

D -------------------------------------------------------------|
A -------------------------------------------------------------|
F -------------------------------------------------------------|
C --2--2---x-x-x-x--2-2--x-x-x-x--2-2--x-x-x-x-----------------|
G --2--2---x-x-x-x--2-2--x-x-x-x--2-2--x-x-x-x--7--5--7--8--5--|
D --0--0---x-x-x-x--0-0--x-x-x-x--0-0--x-x-x-x--5--3--5--6--3--|

CHORUS :

D ------------------------------------|
A ------------------------------------|
F ------------------------------------|
C ------------------------------------|
G --5-5-5--7-7-7--2--5-5-5--7-7-7--2--|
D --3-3-3--5-5-5--0--3-3-3--5-5-5--0--|

D-------------------------------------------------------------|
A-------------------------------------------------------------|
F --------------------------------9-9-9--9-9-9--9-9-9--9-9-9--|
C --------------------------------x-x-x--x-x-x--x-x-x--x-x-x--|
G -5-5-5--7-7-7-(Phaser Pedal On)-7-7-7--7-7-7--7-7-7--7-7-7--|
D -3-3-3--5-5-5-----------------------------------------------| x2

BRIDGE (Clean Guitar Part) :

D --0-----0--------------------------------------------------|
A --0-----0--------------------------------------------------|
F --0-----0---3-3--3-3--3-2-0--------------------------------|
C --2-----2---2-2--2-2--2-2---------------8-8--8-8--8-7-5----|
G --2-----2---2-2--2-2--2-2----5--5-5--5--5-5--5-5--5-5-5----|
D --0--0--0---0-0--0-0--0-2----3--3-3--3--3-3--3-3--3-3-3----|


BRIDGE (Distorted Guitar Part) :

D --0-----0--------------------------------------------------|
A --0-----0--------------------------------------------------|
F --0-----0---3-3--3-3--3-2-0--------------------------------|
C --2-----2---2-2--2-2--2-2---------------8-8--8-8--8-7-5----|
G --2-----2---2-2--2-2--2-2----5--5-5--5--5-5--5-5--5-5-5----|
D --0--0--0---0-0--0-0--0-2----3--3-3--3--3-3--3-3--3-3-3----|

LEAD GUITAR RHYTHM PART :

D ----------------------------------|
A ----------------------------------|
F ----------------------------------|
C --2-------------------------------|
G --2---------2-2---------2---------|
D --0--3bend--0-0--3bend--0--3bend--|

D -----------------------------------------|
A -----------------------------------------|
F -----------------------------------------|
C -----------------------------------------|
G 2-2---------2-------2-2-------2--------2-|
D 0-0--3bend--0-3bend-0-0—3bend-0-3bend--0-|

LEAD GUITAR (SOLO) :

D ------------------------------------|
A ----------15/17--------------15/17--|
F -12-14-12--------12-12-14-12--------|
C ------------------------------------|
G ------------------------------------|
D ------------------------------------|

D ------------------------------------------------|
A -------------15/17--------------15/17-17-17-17--|
F -12-12-14-12--------12-12-14-12-----------------|
C ------------------------------------------------|
G ------------------------------------------------|
D ------------------------------------------------|

D --17-17-15-12-15-12--12-------------------------------------|
A -------------------15---15-12-15-12---12--------------------|
F ------------------------------------14---14-12-14-12--------|
C -----------------------------------------------------12-14--|
G ------------------------------------------------------------|
D ------------------------------------------------------------|

D -------12------------------------15-12----12--------------|
A -----12--12---15-12----12--------------15----15-12-15/17--|
F --15(bend)-15--------14----14-12--------------------------|
C ----------------------------------------------------------|
G ----------------------------------------------------------|
D ----------------------------------------------------------|

OUTRO :

D ---------------------------------------------------------------------|
A ---------------------------------------------------------------------|
F ---------------------------------------------------------------------|
C ---------------------------------------------------------------------|
G --------7-7-7---------7-7-7---------7-7-7--7--5--7--8--5----(mute)---|
D -0--0-0--------0--0-0--------0--0-0--------5--3--5--6--3--0-(mute)---|


D --------------------------------------------------------------------|
A --------------------------------------------------------------------|
F --------------------------------------------------------------------|
C --------------------------------------------------------------------|
G --------7-7-7---------7-7-7---------7-7-7--7--5--7--8--5----(mute)--|
D -0--0-0--------0--0-0--------0--0-0--------5--3--5--6--3--0-(mute)--|


D ----------------------------------------------------------------------|
A ----------------------------------------------------------------------|
F ----------------------------------------------------------------------|
C ----------------------------------------------------------------------|
G --------7-7-7---------7-7-7---------7-7-7--7--5--7--8--5--2~~~~~-7/-2-|
D -0--0-0--------0--0-0--------0--0-0--------5--3--5--6--3--0~~~~~-5/-0-|
Suggest correction
Give kudos to tab author, rate the tab!
1 2 3 4 5
comments
print report bad tab
guest
You may want to rate the tab now too:
select rating
Wanna post a correction for this tab? Suggest correction