Oops, an error
Loading. Please wait.

Dorm Patrol - Eat Sleep Work Repeat Tab

432 views 1 this week
no commentswrite comment
1 2 3 4 5
please rate
add to favorites
launch autoscroll
font size
0
reset
how to read this tab
guitar tuner
Tab Pro tools
  • play this tab
  • loop segment
  • change instrument
  • show fretboard
  • metronome
×
Best way to learn
"Dorm Patrol - Eat Sleep Work Repeat"
Autoscroll
slow
fast
+/-
esc
set tempo
stop
Contributor
Difficulty
intermediate
-------------------------------------------------------------------------------
                                            Eat, Sleep, Work, Repeat - Dorm Patrol
-------------------------------------------------------------------------------


Tabbed by: Johan Olsson
Email: Dormpatrol@live.com

Tuning:EADGBe


--------------------


Intro:

Both guitars:

e|---------------------------------------------------------------------------|
B|---------------------------------------------------------------------------|
G|---------------------------------------------------------------------------|
D|--4--4--4------7--7--7-----------------------------------------------------|
A|--2--2--2------5--5--5-----5--5--5-----7--7--7///--------------------------|
E|---------------------------3--3--3-----5--5--5///--------------------------|


e|---------------------------------------------------------------------------|
B|---------------------------------------------------------------------------|
G|---------------------------------------------------------------------------|
D|--4--4--4------7--7--7-----------------------------------------------------|
A|--2--2--2------5--5--5-----5--5--5-----7--7--7///--------------------------|
E|---------------------------3--3--3-----5--5--5///--------------------------|

Intro part 2:

Rhythm guitar:

e|---------------------------------------------------------------------------|
B|---------------------------------------------------------------------------|
G|---------------------------------------------------------------------------|
D|--4-4-4-4-4--7-7-7-7-7-----------------------------------------------------|
A|--2-2-2-2-2--5-5-5-5-5--5-5-5-5-5--7-7-7-7-7--x2---------------------------|
E|------------------------3-3-3-3-3--5-5-5-5-5--x2---------------------------|

Lead guitar:

e|---------------------------------------------------------------------------|
B|---------------------------------------------------------------------------|
G|-------------7-7-7-7-7--12-12-12-12-12--14-14-14-14-14---------------------|
D|--4-4-4-4-4----------------------------------------------------------------|
A|--2-2-2-2-2--5-5-5-5-5--10-10-10-10-10--12-12-12-12-12---------------------|
E|---------------------------------------------------------------------------|

e|---------------------------------------------------------------------------|
B|---------------------------------------------------------------------------|
G|-------------7-7-7-7-7--12/let ring/--14/let ring/-------------------------|
D|--4-4-4-4-4----------------------------------------------------------------|
A|--2-2-2-2-2--5-5-5-5-5--10/let ring/--12/let ring/-------------------------|
E|---------------------------------------------------------------------------|

Vers:

Both guitars:

e|---------------------------------------------------------------------------|
B|---------------------------------------------------------------------------|
G|---------------------------------------------------------------------------|
D|--pm-4-4-4-4-4-4-4-----------------7-7-7-7-7-7-7---------------------------|
A|--pm-2-2-2-2-2-2-2--5-5-5-5-5-5-5--5-5-5-5-5-5-5--7-7-7-7-7-7-7------------|
E|--------------------3-3-3-3-3-3-3-----------------5-5-5-5-5-5-5------------|

e|---------------------------------------------------------------------------|
B|---------------------------------------------------------------------------|
G|---------------------------------------------------------------------------|
D|--pm-4-4-4-4-4-4-4-----------------7-7-7-7-7-7-7---------------------------|
A|--pm-2-2-2-2-2-2-2--5-5-5-5-5-5-5--5-5-5-5-5-5-5--7-7-7-7-7-7-7------------|
E|--------------------3-3-3-3-3-3-3-----------------5-5-5-5-5-5-5------------|

Vers part 2:

Rhythm guitar:

e|---------------------------------------------------------------------------|
B|---------------------------------------------------------------------------|
G|---------------------------------------------------------------------------|
D|--4---------------------7--------------------------------------------------|
A|--2----------5----------5----------7--x2-----------------------------------|
E|-------------3---------------------5--x2-----------------------------------|

Lead guitar:

e|---------------------------------------------------------------------------|
B|----------------------------------------------------19b--------------------|
G|--------------------------------------------------18-----------------------|
D|--9b/---15b\---12b/---17b---9b/---15b\---12b/---17-------------------------|
A|---------------------------------------------------------------------------|
E|---------------------------------------------------------------------------|

Chorus:

Both guitars:


e|---------------------------------------------------------------------------|
B|---------------------------------------------------------------------------|
G|---------------------------------------------------------------------------|
D|--4-4---4-4----------------------------------------------------------------|
A|--2-2---2-2---4-4---4-4---5-5---5-5---2-2---2-2--x2------------------------|
E|--------------2-2---2-2---3-3---3-3---0-0---0-0--x2------------------------|

e|---------------------------------------------------------------------------|
B|---------------------------------------------------------------------------|
G|---------------------------------------------------------------------------|
D|--4-4-4-4-4-4--------------------------------------------------------------|
A|--2-2-2-2-2-2--4-4-4-4-4-4--5-5-5-5-5-5--2-2-2-2-2-2-----------------------|
E|---------------2-2-2-2-2-2--3-3-3-3-3-3--0-0-0-0-0-0-----------------------|


- Repeat intro part 2

- Repeat Vers

- Repeat Chorus

Solo:

Rhythm guitar:

e|---------------------------------------------------------------------------|
B|---------------------------------------------------------------------------|
G|---------------------------------------------------------------------------|
D|--4-4-4-4-4--7-7-7-7-7-----------------------------------------------------|
A|--2-2-2-2-2--5-5-5-5-5--5-5-5-5-5--7-7-7-7-7--x2---------------------------|
E|------------------------3-3-3-3-3--5-5-5-5-5--x2---------------------------|

Lead guitar solo:

e|--777----777----77---------------------------------------------------------|
B|--777----777----77-99------------------------------------------------------|
G|------9b-----9b----99-9-7h-9p-7h-9p-7h-9p-7h-----------------7---7-9b-7b---|
D|-------------------------------------------7-9h*b----7-7-7-9--9------------|
A|---------------------------------------------------------------------------|
E|---------------------------------------------------------------------------|

e|----------------------------19-------19------------------------------17b17b|
B|-----------17------17----------18-------18-------------19-18-17-18-19------|
G|--------------16------16----------16-------16-16b-16b----------------------|
D|--14b-14b--------14------14------------------------------------------------|
A|---------------------------------------------------------------------------|
E|---------------------------------------------------------------------------|

Solo part 2:

Rhythm guitar:

e|---------------------------------------------------------------------------|
B|---------------------------------------------------------------------------|
G|---------------------------------------------------------------------------|
D|---------------------------------------------------------------------------|
A|--2-2-2-2-2-2-2-2--5-5-5-5-5-5-5-5-----------------------------------x2----|
E|------------------------------------3-3-3-3-3-3-3-3--5-5-5-5-5-5-5-5-x2----|

Solo guitar:

e|---------------------------------------------------------------------------|
B|---------------------------------------------------------------------------|
G|----------------------------------------------17----------17---------------|
D|------------16-----------16------16----------------------------------------|
A|--14pm-14pm----14pm-14pm-----14pm----15pm-15pm---15pm-15pm-----------------|
E|---------------------------------------------------------------------------|


e|---------------------------------------------------------------------------|
B|---------------------------------------------------------------------------|
G|-------------12----------12------12------------14----------14------14------|
D|---------------------------------------------------------------------------|
A|--10pm-10pm----10pm-10pm-----10pm----12pm-12pm---12pm-12pm----12pm---------|
E|---------------------------------------------------------------------------|

e|---------------------------------------------------------------------------|
B|---------------------------------------------------------------------------|
G|----------------------------------------------17----------17---------------|
D|------------16-----------16------16----------------------------------------|
A|--14pm-14pm----14pm-14pm-----14pm----15pm-15pm---15pm-15pm-----------------|
E|---------------------------------------------------------------------------|

e|---------------------------------------------------------------------------|
B|---------------------------------------------------------------------------|
G|--12/let ring/--------14/let ring/-----------------------------------------|
D|---------------------------------------------------------------------------|
A|--10/let ring/--------12/let ring/-----------------------------------------|
E|---------------------------------------------------------------------------|


- Repeat Chorus

- Repeat intro as outro



Enjoy!!




************************************

| pm  palm mute
| /   slide up
| \   slide down
| h   hammer-on
| p   pull-off
| ~   vibrato
| +   harmonic
| x   Mute note
| b   Bend
| pb  Pre-bend
| br  Bend release
| pbr Pre-bend release
| brb Bend release bend

************************************
comments
We did not receive enough feedback on this tab! Please rate:
print report bad tab
1 2 3 4 5
I want to post or [tab]
guest
You may want to rate the tab now too:
select rating
Please do not post tabs as comments. Select "correction" instead!