Oops, an error
Loading. Please wait.

Doug Mikula - As The Tide Breaks Bass Tab

174 views 1 this week
no commentswrite comment
1 2 3 4 5
please rate
add to favorites
launch autoscroll
font size
0
reset
guitar tuner
Autoscroll
slow
fast
+/-
esc
set tempo
stop
Help us to improve Ultimate-Guitar.com Take our survey!
×
Author
Difficulty
intermediate
-------------------------------------------------------------------------------
			     As The Tide Breaks - Doug Mikula
-------------------------------------------------------------------------------

Tabbed By : kyle
e-mail: kam915@msn.com

Tuning:standard
          x2                    x2                              x8
G|-------------------|--9x-12-9x-12---12---|-------8---|-------------------|
D|-------------------|-------------10----10|-----------|-------------------|
A|-------2-2-3-3-5-5-|---------------------|-10---8---8|-------------------|
E|---3-3-------------|---------------------|-----------|---------3---------|
             x2
G|-------------------------|-----------------------------------------------|
D|-------------------------|--------------------------------3--------------|
A|-------------2-2--333-555|----2-1-3---2-1-3---2-1-3---2-1----------------|
E|--3-3--0-0-0-------------|--3-------3-------3-------3--------------------|
             x4
G|------0-2----------0-2-420-|---------------------------------|-----------|
D|--2-4--------0-2-4--------4|--------1-------1-------1--------|-----------|
A|----------023--------------|----2-1-----2-1-----2-1---4--4--3|---break---|
E|---------------------------|--3-------3-------3--------------|-----------|
                                                               x8
G|--------------------------------------11------------|--------------------|
D|----------------------------------7--9--9--7--4-----|--------------------|
A|------3-------3-------3-------3--5-5------5-5--2----|--------------------|
E|--3-0-----3-0-----3-0-----3-0--------------------2-0|---------0----------|
                   x4                                   x2
G|-------------------------------------|-----------------------------------|
D|----5--------5---22--5--------5------|---------------------------1b------|
A|-----7-25-----7----0--7-5-77---7-5-7-|-----------------------------------|
E|--0------3-0----3-----------7-------3|--00000000-0000-00000000-00--------|
               x2
G|----------------------------|--------------------------------------------|
D|--------------------------1b|--------2--2--------------------------------|
A|----------------------------|-33-555--------33-500-----------------------|
E|-00000000-0000-2233550-00---|---------3--3---------03-03-----------------|
    x6 (or until bass part ends)     (very end of song as a close)
G|-------------------------------|---9~---10-12-9~-------------------------|
D|--------4--2---------0---------|-----------------------------------------|
A|-33-555-------33-500------00-22|-----------------------------------------|
E|---------3--0---------333------|-----------------------------------------|



| /  slide up
| \  slide down
| h  hammer-on
| p  pull-off
| ~  vibrato
| +  harmonic
| x  Mute note
===============================================================================
Suggest correction
Give kudos to tab author, rate the tab!
1 2 3 4 5
comments
print report bad tab
guest
You may want to rate the tab now too:
select rating
Please do not post tabs as comments. Select "correction" instead!