Oops, an error
Loading. Please wait.

Doyle - That Song That I Said About To Shaun Bass Tab

641 views 1 this week
no commentswrite comment
1 2 3 4 5
please rate
add to favorites
launch autoscroll
font size
0
reset
guitar tuner
Autoscroll
slow
fast
+/-
esc
set tempo
stop
Help us to improve Ultimate-Guitar.com Take our survey!
×
Contributor
|--------------------| x4
|---------33/7\3-0-3-|
|-----3-5------------|
|-5-5----------------|

|--------------------| x4
|------3030----3030--|
|----35------35------|
|--55------55--------|

|--------------------| x2
|--------------------|
|----------33335555--|
|--55555555----------|

|--------------------| x2
|--------33------33--|
|----3355----3355----|
|--55------55--------|

|--------------------| x2
|------3/7-30----3~--|
|----35--------35----|
|--55--------55------|
comments
We did not receive enough feedback on this tab! Please rate:
print report bad tab
1 2 3 4 5
I want to post or [tab]
guest
You may want to rate the tab now too:
select rating
Please do not post tabs as comments. Select "correction" instead!