Oops, an error
Loading. Please wait.

Dragon Ball Z - Cha-La Head Cha-La Tv Version Latino chords

91 views 6 this week
no commentswrite comment
1 2 3 4 5
3 more votes to show rating
add to favorites
×
Save as Personal and add changes to this tab that will be seen only by you. Learn more ›
×
You can save this tab as Personal to edit and correct it or add notes. All changes will be seen only by you. Learn more »
launch autoscroll
font size
0
reset
transpose
0
reset
simplify chords
display chords
guitar tuner
edit
Autoscroll
slow
fast
+/-
esc
set tempo
stop
Author
Difficulty
About this tab version
Esto es un analisis armonico considerando al bajo, los metales/sintetizadores y la guitarra, se pueden suprimir los bajos de los acordes para una ejecucion mas sencilla. Los acordes que aparecen entre parentesis (C) indican el cambio de acorde segun el bajo, puesto que entra sincopado, el resto es en base a los arreglos que van haciendo los otros instrumentos. Was this info helpful? Yes No
Strumming Is this strumming pattern correct? Yes No
El cielo resplandece 154 bpm
1
&
2
&
3
&
4
&
5
&
6
&
7
&
8
&
Listen
[Intro]

(Bsus4)
e|7-----------7-----------7|
B|--7--- ---7---7-------7--|
G|----9---9-------9---9----|
D|------9-----------9------|
A|-------------------------|
E|-------------------------|

Esus4 E | Esus4 E | D/E | % | C/D | C/E | (E)


[Verse 1]
Esus4 E                   (D) Esus4/D E/D
El cielo resplandece a mi alrededor (alrededor),
       (C) Cmaj7 C6  (G)       Gsus4 G           Bsus4 B  (E)
Al volar  destellos brillan en las nubes sin fín.

  (Bsus4 B)
e|-------------------------------|
B|5-------5-------4-------4------|
G|--4---4---4---4---4---4---4---4|
D|----4-------4-------4-------4--|
A|-------------------------------|
E|-------------------------------|

Esus4 E                          (D)      Esus4/D E/D
Con libertad puedes cruzar hoy el cielo azul (el cielo azul),
        (C) Cmaj7 C6                Bsus4        B
Despierta         furia un golpe de pronto en ti.


C#m7          B/D#         E             D
Como si un volcán hiciera una erupción.
                         Esus4/C#
Derrite un gran glaciar,
                                   Bsus4 B
Podrás ver de cerca un gran dragón.


e|--------------|
B|------ -------|
G|----9---7-----|
D|--7---9------9|
A|9---------10--|
E|--------------|


[Chorus]
G  A/G G        A/G   D/F#
CHA-LA HEAD-CHA-LA.
    G      G/A     Bm
No importa lo que suceda,
G     D/F#  Em     C      Asus4    A
siempre  el ánimo mantendré


G  A/G G        A    D
CHA-LA HEAD-CHA-LA.
 G        G/A  Bm       G
Vibrante mi corazón siente emoción,
         Bb
Haré una Genki-dama.

G  A/G G        A/G   D/F#
CHA-LA HEAD-CHA-LA.
    G      G/A     Bm  G    D/F#
No pienses nada solo escucha,
Em            C        Asus4    A
Sueños hay en tu corazón


G  A/G G        A    D
CHA-LA HEAD-CHA-LA
    G      G/A     Bm 
No importa lo que suceda, 
G                  Bb    C  A7sus4 Bb C9
Sonreiré el día de hoy

  (Dsus4)
e|10----------------10----------------10----------------10----------------10---------|
B|---10----------10----10----------10----10----------10----10----------10----10------|
G|------12----12----------12----12----------12----12----------12----12----------12---|
D|---------12----------------12----------------12----------------12----------------12|
A|-----------------------------------------------------------------------------------|
E|-----------------------------------------------------------------------------------|

            
            
Suggest correction
Creating personal tab
Creating personal tab
You can edit any tab online and save it as your Personal.

You can edit, replace or remove any tab part or add personal notes – all changes will be seen only by you.

Personal tabs can be accessed anytime from any device, even offline.
Learn more »
Give kudos to tab author, rate the tab!
1 2 3 4 5
comments
print report bad tab
guest
You may want to rate the tab now too:
select rating
Wanna post a correction for this tab? Suggest correction